From: Greg A Diehl
Subject: Oh, the Guilt TAB
This is the tablature to Nirvana's "Oh the Guilt"
_____________________________________________________________________________
"Oh, The Guilt"
Written By: Kurt Cobain
From: "Puss/Oh, The Guilt" EP
Tabbed By: Greg Diehl ([email protected])
[email protected]___________
Opening:
+--0-------0-0-0-------+ You play this part with
|--0-------0-0-0-------| the guitar sound off,
|--0-------0-0-0-------| then after the last one
|--0-------0-0-0-------| turn the distortion and
|--0-------0-0-0-------| sound up all the way and
+--0-------0-0-0-------+ let the feedback ring.
Opening II:
+----------------------------------------------------+
|----------------------------------------------------|
|----------------------------------------------------|
|--6-6-6/5-5-5-5/---6-6-6/5-5-5-5/---6-6-6/5-5-5-5/--|
|--6-6-6/5-5-5-5/---6-6-6/5-5-5-5/---6-6-6/5-5-5-5/--|
+--4-4-4/3-3-3-3/---4-4-4/3-3-3-3/---4-4-4/3-3-3-3/--+
Verse:
+---------X---------X---------X---------------------+ The X's are a
|---------X---------X---------X---------------------| replacement for
|---------X---------X---------X---------------------| the sciscors sound
|--6-6-6--X--6-6-6--X--6-6-6--X---6-6-6/5-5-5-5/----|
|--6-6-6--X--6-6-6--X--6-6-6--X---6-6-6/5-5-5-5/----|
+--4-4-4--X--4-4-4--X--4-4-4--X---4-4-4/3-3-3-3/----+
Verse II:
+------------------+
|------------------|
|------------------|
|--6-6-6/5-5-5-5/--|
|--6-6-6/5-5-5-5/--|
+--4-4-4/3-3-3-3/--+
Chorus:
+--------------------------------------------+
|--------------------------------------------|
|--------------------5-5-5-5-5-5-5-5---------|
|--6-6-6-6--5-5-5-5--5-5-5-5-5-5-5-5---------|
|--6-6-6-6--5-5-5-5--3-3-3-3-3-3-3-3---------|
+--4-4-4-4--3-3-3-3--------------------------+
Solo/Background:
+-----------------------------------------------+ This is actually
|-----------------------------------------------| the part the Bass
|-----------------------------------------------| Guitar is playing
|---------X---------X---------X-----------------| durring the solo,
|---------X---------X---------X-----------------| but I can't figure
+--4-4-4--X--4-4-4--X--4-4-4--X--4-4-4/3-3-3-3/-+ the solo out, so it
will have to do :)
Ending:
+--------------+
|--------------|
|--------------|
|--6-6-6-------|
|--6-6-6-------|
+--4-4-4-------+
That's is. To make it easier to play, here's the order to play each one
and how many times...
Opening (x1)
Opening II (x1)
Verse (x2)
Verse II (x8)
Chorus (x4)
Verse (x2)
Verse II (x8)
Solo/Background (x4)
Verse (x2)
Verse II (x8)
Chorus (x8)
Ending (x1)
-----------------------------------------------------------------------------
If anyone knows the guitar solo, I'd appreciate you mailing it to:
[email protected]
[email protected]------------




Ваше мнение



Капча