Eb |------------------------------------------------------------------------|
Bb |------------------------------------------------------------------------|
Gb |---3-------6------------------------------------------------------------|
Db |---3-------6---5----------5-----5---5---6-------------------------------|
Ab |---1-------4---5----------5-----5---5---6-------------------------------|
Eb |---------------3------0---3-----3---3---4---0---0---0-------------------|
^
bend up.
Eb |---------------------------------|
Bb |---------------------------------|
Gb |---3-------6---------------------|
Db |---3-------6---5----------5------|
Ab |---1-------4---5----------5------|
Eb |---------------3------0---3------|
This song was a bitch to tab, so maybe its not 100%.. but maybe it is.. ah well.




Ваше мнение



Капча