From: [email protected] (Xangel)
Date: 03 Nov 95 14:47:00 -0800

SONG: "Floyd the Barber"
GROUP: Nirvana
TRANSCRIPTION: [email protected]
TUNING: Regular

This is off the top of my head, but here it is. It's really not that hard at
all.

INTRO/VERSE

----------------------
----------------------
----------------------
-3----3---X-X-X-------
-3----3---X-X-X-------
-1----1---X-X-X-------

CHORUS: ("I was shamed....")

------------------------------
------------------------------
-5--5----------4--4-----------
-5--5---6--6---4--4---5--5----
-3--3---6--6---2--2---5--5----
--------4--4----------3--3----

SOLO THING:
1/4 1/4
-----------------)-------------------------------)--------------
-----------------)-------------------------------)--------------
-----------------)-------------------------------)--------------
-----------------)-------------------------------)--------------
-------------0-1-3--3-1--0-1-3---------------0-1-3--3-1--0-1-3--
-1---1-0-1-3---------------------1---1-0-1-3--------------------

1/4
-----------------)-----------------------------------------------
-----------------)---------------------------------------------1-
-----------------)---------------------------------------0-2-3---
-----------------)---------------------------------0-2-3---------
-------------0-1-3--3-1--0-1-3---------------0-1-3---------------
-1---1-0-1-3---------------------1---1-0-1-3---------------------

Then immediately back to the verse riff.
******************************************************************
** --==**>>Xangel>>**==-- **** THE DEAD ZoNE **
** The Woozels **** (503)775-5504 **
** "An okay band!" **** Guitar, RA, DOOM Support! **
******************************************************************

--- Blue Wave/RA v2.20 [NR]




Ваше мнение



Капча