Submitted by: chuck black
Song Title: Blandest
Artist: Nirvana written by Kurt D. Cobain (1967-1994)
First verse:
--9----9--7b--------------------------------------
----7---------------------------------------------
--------------------------------------------------
--------------------------------------------------
--------------------------------------------------
--------------------------------------------------
Chorus:
--3-3--------------------------------------3---------
------10---3-4-5-4-3hold-1-3-4-5--5-4-3-1----10------
------12-------------------------3-----------12------
-----------------------------------------------------
-----------------------------------------------------
-----------------------------------------------------
Solo:
--8b-----8b----6b-----------------------------
----------------------------------------------
----------------------------------------------
-----8b---------------------------------------
----------------------------------------------
----------------------------------------------
please e-mail me if their is any errors at [email protected]




Ваше мнение



Капча