Nirvana - Asshole(Rare song)
Tabbed by:Khafka
Email:[email protected]
E|--------------------------|
B|--------------------------|
G|--------------------------|
D|--------------------------|
A|-----------5-5------------|
E|----4--4---------4--4--0--|
Then this with distortion

E|--------------------------|
B|--------------------------|
G|-----------7-7------------|
D|--6--6-----7-7---6--6-----|
A|--6--6-----5-5---6--6-----|
E|--4--4-----------4--4--0--|
(verse)
E|--------------------------|
B|--------------------------|
G|-------------7-7----------|
D|----6--6-----7-7----------|
A|----6--6-----5-5----------|
E|----4--4------------------|
Then
E|--------------------------|
B|--------------------------|
G|-----------7-7------------|
D|--6--6-----7-7---6--6-----|
A|--6--6-----5-5---6--6-----|
E|--4--4-----------4--4--0--|
Chorus
E|-----------------------|
B|-----------------------|
G|-----------------------|
D|----9----8----7--------|
A|----9----8----7--------|
E|----7----6----5--------|E|--------------------------|
B|--------------------------|
G|-----------7-7------------|
D|--6--6-----7-7---6--6-----|
A|--6--6-----5-5---6--6-----|
E|--4--4-----------4--4--0--|
then
E|-------------------------|
B|-------------------------|
G|-----------9--9-9-9------|
D|----9--5---9--9-9-9------|
A|----9--5---7--7-7-7------|
E|----7--3-----------------|
And back to
E|--------------------------|
B|--------------------------|
G|-----------7-7------------|
D|--6--6-----7-7---6--6-----|
A|--6--6-----5-5---6--6-----|
E|--4--4-----------4--4--0--|




Ваше мнение



Капча