Tabber: tyler - [email protected] - for ?'s, comments, death threats..
After the intro and pre-chorus, the solo part goes like this..
|----------------------------------------------------|
|----------------------------------------------------|
|-44444444--77777777--44444444-----------------------|
|-44444444--77777777--44444444-----------------------|
|-22222222--55555555--22222222--55555555--44444444---|
|-------------------------------33333333--22222222---|
|----------------------------------------------------------|
|----------------------------------------------------------|
|-44444444--77777777---------------------------------------|
|-44444444--77777777--999999-10-10-10-10-10-10-10-10-10-10-|
|-22222222--55555555--777777/-8--8--8--8--8--8--8--8--8--8-|
|----------------------------------------------------------|
|-------------------------------------------------------|
|-------------------------------------------------------|
|-99-77----77--99--77----77--99--77----77----77-----77--|
|-99-77-99-77--99--77-99-77--99--77-99-77-99-77-99--77--|
|-77-55-99-55--77--55-99-55--77--55-99-55-99-55-99--55--|
|-------77------------77------------77----77----77------|
|----------------------------------------------------------|
|----------------------------------------------------------|
|----7-9-7---7--9--7---9-9-9-9-9-9-9--10-10-10-10-10-10----|
|-9--7-9-7-9-7--9--7---9-9-9-9-9-9-9--10-10-10-10-10-10----|
|-9--5-7-5-9-5--7--5---7-7-7-7-7-7-7/--8--8--8--8--8--8----|
|-7----------7---------------------------------------------|
......bend..........release slowly..
It continues through with the chorus and ends.




Ваше мнение



Капча