Green Day,Good Riddance (Time Of Your Life).
Tabbed by Jeniflee,[email protected]

This is the correct version, it works for Billie-Joe, it works for me.
These are the basic chord patterns, you just need to figure out the strumming.
Normal tuning.

Verse

|-3------3------3------0-|
|-3------3------3------2-|
|-0------0------0------3-|
|-0------0------0------0-|
|-0------0------3------0-|
|-3------3------0------0-|

Bridge:

|-0------0------3------3-|
|-0------2------3------3-|
|-0------3------0------0-|
|-2------0------0------0-|
|-2------0------3------0-|
|-0------0------0------3-|

Chorus

|-0------3------0------3------0------2------3-|
|-0------3------0------3------0------3------3-|
|-0------0------0------0------0------2------0-|
|-2------0------2------0------2------0------0-|
|-2------0------2------0------2------0------0-|
|-0------3------0------3------0------0------3-|

Verse 1:
Another turning point
A fork stuck in the road
Time grabs you by the wrist
Directs you where to go

Bridge 1:
So make the best of this test and dont ask why
It's not a question but a lesson learned in time

Chorus:
It's something unpredictable
But in the end is right
I hope you had the time of your life

Verse 2:
So take the photographs
And stillframes in your mind
Hang it on a shelf
Of good health and good time

Bridge 2:
Tattoos of memories and dead skin on trial
For what its worth, it was worth all the while

Chorus




Ваше мнение



Капча