Green Day - Do Da Da
Submitted By: Chris
EMail: [email protected]
Album:Shenanigans (2002 Reprise Records)
Track:12
Guitar:Billie Joe Armstrong

Intro/Bridge:
A5 E5 E5
e---------------|
b---------------|
g----------99---|
D---7---22-99---|(x3)
A---7---22-77---|
E---5---00------|

D5 E5
e--------------|
b--------------|
g---7-77-9-9---|
D---7-77-9-9---|
A---5-55-7-7---|
E--------------|

Verse:
A5 E5 D5 A5 E5
e---------------------------------|
b---------------------------------|
g-------------------7-7-7-7-------|
D---7-7-7-7-2-2-2-2-7-7-7-7-7-2---|(x2)
A---7-7-7-7-2-2-2-2-5-5-5-5-7-2---|
E---5-5-5-5-0-0-0-0---------5-0---|

Chorus:
Fb5 D5 Fb5 A5 E5
e-------------------------------------|
b-------------------------------------|
g-----------7-7-7-7-7-7---------------|
D---4-4-4-4-7-7-7-7-7-7-4-4-4-4-7-2---|(x2)
A---4-4-4-4-5-5-5-5-5-5-4-4-4-4-7-2---|
E---2-2-2-2-------------2-2-2-2-5-0---|

Bridge x1

Verse x2

Chorus x2

Bridge x1

Verse x2

Chorus x2

Bridge x1

End On:

e-------|
b-------|
g-------|
D---7---|
A---7---|
E---5---|

That's it! It's really easy.




Ваше мнение



Капча