From: [email protected] ()
"Hang 'Em High"
by Y & T
off the albums, Mean Streak and Best of Y&T
normal tuning
intro
----------------------------------------------
----------------------------------------------
---------------9--------------7-6-5-----------
---------------9----------5---7-6-5-----------
---------------7----------5---5-4-3----[7tr8]-
-0-0-0-0-0-0-0----0-0-0-0-3-------------------
verse
----------------------------------------------
----------------------------------------------
-4-4----------4-4------------7-7-7---5-5-5-4--
-4-4----2-2---4-4----2-------7-7-7---5-5-5-4--
-2-2----2-2---2-2----2-------5-5-5---3-3-3-2--
--------0-0----------0------------------------
---------------------------------------------
---------------------------------------------
-4-4----------4-4----9-7-9-7-9-7----4--------
-4-4----2-2---4-4----9-7-9-7-9-7----4--------
-2-2----2-2---2-2----7-5-7-5-7-5----2--------
--------0-0----------------------------------
----------------------------------------------
----------------------------------------------
-4-4----------4-4------------7-7-7---5-5-5-4--
-4-4----2-2---4-4----2-------7-7-7---5-5-5-4--
-2-2----2-2---2-2----2-------5-5-5---3-3-3-2--
--------0-0----------0------------------------
------------------------------------------------
------------------------------------------------
-4-4---------------4-------4---5-------5---7--7-
-4-4----2-2--------4---4---4---5---5---5---7--7-
-2-2----2-2--------2---4---2---3---5---3---5--5-
--------0-0------------2-----------3------------
chorus
----------------------------------------------
----------------------------------------------
---------------9--------------7-6-5-----------
---------------9----------5---7-6-5-----------
---------------7----------5---5-4-3-----------
-0-0-0-0-0-0-0----0-0-0-0-3-------------------

always will survive....
--------------------------------------
--------------------------------------
-4--5---7----7------------------------
-4--5---7----7------------------------
-2--3---5----5------------------------
--------------------------------------
-------------------------------0----------------0-
-------------------------------0----------------0-
-9-----------7------------------------------------
-9-----------7------------------------------------
-7-7-9-10----5-5-7-9-7----------------------------
-------------------------0-2-3----2-3-5---3-2-0---
rhythm before solo (clean)
----------------------------------------------------
----------------------------------------------------
-9---9-11-12-7-----9/11/9--------------------------
-9---9-11-12-7-----9/11/9--------------------------
----------------------------------------------------
------------------------------0-2-3---2-3-5---3-2-0-
solo rhythm (distorted)
--------------------------------------------------
--------------------------------------------------
-9---9-11-12-7----7-9-11-9------------------------
-9---9-11-12-7----7-9-11-9------------------------
-7---7--9-10-5----5-7--9-7------------------------
------------------------------0-2-3--2-3-5--3-2-0-
end of solo rhythm
-10-8-7-------------------------------
--------10-8-7------------------------
----------------7-5-4-----------------
----------------------7-5-4----2v-----
--------------------------------------
--------------------------------------
ending (palm mute throughout)
-------------------------------------------------------
-10-8-7-----------------------10-8-7-------------------
---------9-7-5-----------------------9-7-5-------------
----------------9-7-5----------------------9-7-5-------
----------------------9-7-5----------------------9-7-5-
-------------------------------------------------------
-------------------------------------
-10-8-7------------------------------
--------9-7-5------------------------
--------------9-7-5------------------
--------------------9-7-5---7--------
-------------------------------------




Другие песни исполнителя

Rescue me (табы)
From The Moon (табы)

Ваше мнение



Капча

Рекомендуем