From: [email protected] ()

From the Moon
By Y&T

transribed by Rob Schenk
[email protected]

----------------------------------------
----------------------------------------
-----------12b-12------------12b-15-12--
--------12----------------12------------
-/10-13-------------/10-13---------------
----------------------------------------

-------------------------------------
----------12b-16-15-13----13b--------
-------12--------------14-----12-11--
-10-13-------------------------------
-------------------------------------
-------------------------------------

----------------------------------------
----------------------------------------
-----------12b-12------------12b-15-12--
--------12----------------12------------
-/10-13-------------/10-13---------------
----------------------------------------

-------------------------------------
----------12b-16-15-13----13b--------
-------12--------------14-----12-11--
-10-13-------------------------------
-------------------------------------
-------------------------------------

------------------------------------
-12-14-15-12------------------------
------------------------------------
------------------------------------
------------------------------------
------------------------------------




Другие песни исполнителя

Hang em High (табы)
Rescue me (табы)

Ваше мнение



Капча

Рекомендуем