Valediction ( Middle Solo )
by Wishbone Ash
from the album Pilgrimage

Transcribed by Rob Watson [email protected]

Dm Bb C F
2.37
E|-----------------10------|-------------------------------|
B|-----------10-13---------|(13pb15)r13-10-----------------|
G|---9s10-12---------------|---------------10-9------------|
D|12-----------------------|--------------------12-10------|
A|-------------------------|--------------------------12---|
E|-------------------------|-------------------------------|

Bbmaj7 C Bb A7

E|-------------------------|--------------------------|
B|-------------------------|--------------------------|
G|-----------10-10-9-------|-----------10-10-12b14----|
D|-----10-12---------------|-----10-12----------------|
A|--12---------------------|--12----------------------|
E|-------------------------|--------------------------|

Dm Bb C F

E|-----------------10------|13b15-13-10---------------|
B|-----------10-13-------10|------------10-13-10-13---|
G|---9s10-12---------------|--------------------------|
D|12-----------------------|--------------------------|
A|-------------------------|--------------------------|
E|-------------------------|--------------------------|

Bbmaj7 C Bb A7

E|----------------------------|-----------------------|
B|---11-10-10----11-10--------|---11-10---------------|
G|10----------10-------12-10-9|10-------12-10-9h10p9--|
D|----------------------------|-----------------------|
A|----------------------------|-----------------------|
E|----------------------------|-----------------------|

Gm Dm C Dm

E|-------------------------------------|-----------------|
B|-----------10-13-13b15-13-10-------10|---------------10|
G|---9s10-12-------------------12b14---|12-10-9-10-------|
D|12-----------------------------------|-----------12----|
A|-------------------------------------|-----------------|
E|-------------------------------------|-----------------|

Gm Dm E7 A

E|13b15-13-10-------10------------|---------------------|
B|------------10-13----13-10-13p10|----------------15b17|
G|--------------------------------|12-10-9-10-12-9------|
D|--------------------------------|---------------------|
A|--------------------------------|---------------------|
E|--------------------------------|---------------------|

Gm Dm C Dm

E|12-13-15-15b17---15-13-12---|---------13----15-13-------------|
B|--------------------------15|---13-15----13-------15--15-15-15|
G|----------------------------|14-------------------------------|
D|----------------------------|---------------------------------|
A|----------------------------|---------------------------------|
E|----------------------------|---------------------------------|

Gm F Bb C Dm

E|18b20-18-17-15-17-15----------|---------------------------|
B|---------------------18-17--15|---15-17-18-17-15----15----|
G|------------------------------|17----------------17-------|
D|------------------------------|---------------------------|
A|------------------------------|---------------------------|
E|------------------------------|---------------------------|


Ваше мнение



Капча

Рекомендуем