Sorrell
by Wishbone Ash
from the album Wishbone Four

Transcribed by Rob Watson [email protected]
(The track is 1/2 semitone sharp)

Intro

Em G D
Gtr 1
E|---14-15-17-14-15----14------------------------|---------|
B|------------------17----15-17----15------------|------15-|
G|------------------------------16----14-16-14---|14-16----|
D|---------------------------------------------17|---------|
A|-----------------------------------------------|---------|
E|-----------------------------------------------|---------|
|Gtr 2 | |
E|------12-14----12------------------------------|---------|
B|---15-------15----13-15-12-13------------------|---------|
G|------------------------------12-14-11-12-11---|11-12-14-|
D|---------------------------------------------14|---------|
A|-----------------------------------------------|---------|
E|-----------------------------------------------|---------|

C D Em

E|-----12-14----12-------------------------------|---------|
B|--15-------15----12-15----12-------------------|---------|
G|-----------------------14----12-14-11-12-------|---11-12-|
D|-----------------------------------------14----|14-------|
A|-----------------------------------------------|---------|
E|-----------------------------------------------|---------|
| | |
E|-----------------------------------------------|---------|
B|--12-13-15-12-13----12-------------------------|---------|
G|-----------------12----11-12----11-------------|---------|
D|-----------------------------14----12-14-------|---12-14-|
A|-----------------------------------------14-12-|14-------|
E|-----------------------------------------------|---------|

Em G D

E|---14-15-17-14-15----14------------------------|---------|
B|------------------17----15-17----15------------|------15-|
G|------------------------------16----14-16-14---|14-16----|
D|---------------------------------------------17|---------|
A|-----------------------------------------------|---------|
E|-----------------------------------------------|---------|
| | |
E|------12-14----12------------------------------|---------|
B|---15-------15----13-15-12-13------------------|---------|
G|------------------------------12-14-11-12-11---|11-12-14-|
D|---------------------------------------------14|---------|
A|-----------------------------------------------|---------|
E|-----------------------------------------------|---------|

C D Am

E|-----12-14----12-------------------------------|---------|
B|--15-------15----12-15----12-------------------|---------|
G|-----------------------14----12-14-11-12-------|---------|
D|-----------------------------------------14-12-|14-------|
A|-----------------------------------------------|---------|
E|-----------------------------------------------|---------|
| | |
E|-----------------------------------------------|---------|
B|--12-13-15-12-13----12-------------------------|---------|
G|-----------------12----11-12----11-------------|---------|
D|-----------------------------14----12-14-------|---------|
A|-----------------------------------------15-14-|15-------|
E|-----------------------------------------------|---------|

Em G D
In a garden of the southland

Em G D
he found her wandering astray

Em G D
She came to show him of her beauty

Em G D
That many passersby don't see

C D G
Would you be taking in such a frail looking lady

C D Am
The sadness of her lone display

Solo

Em G D C D

1.44
E|-------------------------|------------|7-7-7-7-----------------|
B|-------------------------|-------10b12|--------10-8-7-7h8p7----|
G|-------------------------|7-----------|---------------------9--|
D|5-2---------------5-7-9--|--7-7-------|-----------------------9|
A|----5-2-------5s7--------|------------|------------------------|
E|--------3sb-0------------|------------|------------------------|

Em G

E|----------------------14-15|12---14-15-17b19---17-15-------|
B|---------------------------|-------------------------------|
G|---------------------------|-------------------------------|
D|7s5-7-9-------9------------|-------------------------------|
A|--------10-7----10-7-------|-------------------------------|
E|---------------------------|-------------------------------|

D C D

E|12----------------------------|17tr-17-------------------------12-15----|
B|---15-12-15s12-10----10--20b22|--------20-17-15p12----12----------------|
G|------------------s9----------|--------------------14----14b16-------r14|
D|------------------------------|-----------------------------------------|
A|------------------------------|-----------------------------------------|
E|------------------------------|-----------------------------------------|

Em G D
with wahwah rake
E|-------------------------|------------------|12------12-14|
B|------------------12sd---|12--15s12--s12--15|12b13--12----|
G|12----------12----12-----|------------------|------12-----|
D|---14----------14--------|------------------|-------------|
A|------12h14--------------|------------------|-------------|
E|-------------------------|------------------|-------------|

C D Em

E|15-14-12p10--------------------------|-------------------------------|
B|------------12--12-------------------|-------------------------------|
G|-------------------14b16--14b16r14p12|-------------------------------|
D|-------------------------------------|14--12-------12-14-------------|
A|-------------------------------------|-------12-14-------12p10----12s|
E|-------------------------------------|-------------------------12----|

Em G D

E|----------------------------|----------------------|
B|----------------------------|---------17----15-----|
G|----------------12-12-12----|---14-14----16----s14b|
D|---12-14--12h14----------14h|16--------------------|
A|14--------------------------|----------------------|
E|----------------------------|----------------------|

C D Em

E|-----------------------------------------------|------15b16---------------------------------|
B|---12-12h13p12----12h13p12----12-13-15-12-15-12|15b17-------15b17r15-12-------------------12|
G|16-------------14----------14------------------|------------------------14b16r14-12----14---|
D|-----------------------------------------------|------------------------------------14------|
A|-----------------------------------------------|--------------------------------------------|
E|-----------------------------------------------|--------------------------------------------|


Ваше мнение



Капча

Рекомендуем