Say Goodbye
by Wishbone Ash
from the album Locked In
Transcribed by Rob Watson [email protected]

Intro capo at first fret

E|---------------------------------|-------------------|
B|----------0-----------------0----|0------------------|
G|--0---0-------------0---0--------|0------------------|
D|----4---5---4---------4---5---4--|2------------------|
A|7-----------------5--------------|3------------------|
E|---------------------------------|-------------------|

E|---------------------------------|-------------------|
B|----------0-----------------0----|0------------------|
G|------0-------------0---0--------|0------------------|
D|----4---5---4---------4---5---4--|2------------------|
A|7-----------------5--------------|3------------------|
E|---------------------------------|-------------------|

E|---------------------------------|------------------------|
B|----------0-----------------0----|------------------------|
G|--0---0-------------0---0--------|----0----0-----0---0----| x 2
D|----4---5---4---------4---5---4--|--2----------2----------|
A|7-----------------5--------------|3-----2----3-----2---3-2|
E|---------------------------------|------------------------|

Fm Fm/Eb Bbm /Ab /G /F
I can tell that you don't feel good

Fm Eb Db Bbm Eb/G
I guess you're not alone.

Fm Fm/Eb Bbm /Ab /G /F
Now that you packed your things and you're ready to go

Fm Eb Db Bbm Eb/G
Let's do something tonight I don't know.

Eb Db Ab
We can take a ride across town

Eb Db Ab
Come on, baby, get your clothes on.

Eb Db Ab
All night long, we'll be so high

Eb Db
That's the way we'll say goodbye.

Fm Fm/Eb Bbm /Ab /G /F
What's the name of the old cafe ( Fill 1 )

Fm Eb Db Bbm Eb/G
Where we used to go? ( Fill 2 )

Fm Fm/Eb Bbm /Ab /G /F
It could be good to go there now (Fill 3)

Fm Eb Db Bbm Eb/G
But I don't want to be unhappy today.

Fill 1 Fill 2 Fill 3

E|---16-15---|---|-----------------|---------|------15-16-16b18-16b18-16-15|13|
B|---------16|13-|---------s11-----|---------|18b20------------------------|--|
G|-----------|---|------13-----13--|10h13p10-|-----------------------------|--|
D|-----------|---|10-11------------|---------|-----------------------------|--|
A|-----------|---|-----------------|---------|-----------------------------|--|
E|-----------|---|-----------------|---------|-----------------------------|--|

Eb Db Ab
We can take a ride across town

Eb Db Ab
Come on, baby, get your clothes on.

Eb Db Ab
All night long, we'll be so high

Eb Db
That's the way we'll say goodbye.

Guitar Solo

Fm Eb Db Fm Eb

E|11h|13------|16-15-16----------------------------|------------|
B|---|--------|----------18-16-18-18b20-18b20-18b20|18b20-------|
G|---|--------|------------------------------------|------------|
D|---|--------|------------------------------------|------------|
A|---|--------|------------------------------------|------------|
E|---|--------|------------------------------------|------------|

Db Fm Fm/Eb

E|15-15---------------------------------|-ph----------ph-------------|
B|------16-16---------------------------|----------------------------|
G|------------15-15-13----13-15b17r15-13|15b17-15b17-(15b17--8-times)|
D|---------------------15---------------|----------------------------|
A|--------------------------------------|----------------------------|
E|--------------------------------------|----------------------------|

Bbm /Ab /G /F Fm Eb Db Bbm Eb/G

E|--ph------------|---------13-15-13----------15|---------------15-16|
B|----------------|13-16bss----------16-16b18---|16b18-16-18b20------|
G|(15b17--7-times)|-----------------------------|--------------------|
D|----------------|-----------------------------|--------------------|
A|----------------|-----------------------------|--------------------|
E|----------------|-----------------------------|--------------------|

Fm Eb Bbm Db Eb Fm Eb

E|18-18b20-18b20-16-18|15-16b18-16b18-16-15-13b16r13|------------------------16---|
B|--------------------|-----------------------------|16s13----------13s16-18----18|
G|--------------------|-----------------------------|------15-13-15---------------|
D|--------------------|-----------------------------|-----------------------------|
A|--------------------|-----------------------------|-----------------------------|
E|--------------------|-----------------------------|-----------------------------|

Db Cm Bbm Ab Cm

E|---------15-16-18-16|18b20-18-16-15-16b18-16-15-13|-------------------16-18|
B|18-18b20------------|-----------------------------|16b18r16b18r16--18------|
G|--------------------|-----------------------------|------------------------|
D|--------------------|-----------------------------|------------------------|
A|--------------------|-----------------------------|------------------------|
E|--------------------|-----------------------------|------------------------|

Bbm Db Eb Ab

E|18b20-18-16-15-16-18-18b20-18-16|18b20r18-18b20r18-18b20r18-18b20r18|
B|--------------------------------|-----------------------------------|
G|--------------------------------|-----------------------------------|
D|--------------------------------|-----------------------------------|
A|--------------------------------|-----------------------------------|
E|--------------------------------|-----------------------------------|


Ваше мнение



Капча

Рекомендуем