Leaf and Stream (Solo )
by Wishbone Ash
from the album Argus
Transcribed by Robert Watson [email protected]
Dm F6
E|--------------|---------------5-|--8---10-8-10-|
B|----6-8-6-5---|---5-6-8---6-5---|----8---------|
G|--7---------7-|-7---------------|--------------|
D|--------------|-----------------|--------------|
A|--------------|-----------------|--------------|
E|--------------|-----------------|--------------|
Gm
E|(15pb17)r15-13-12-13-12h13p12---|-------10-12-13-12h13p12-10--|
B|------------------------------15|----10-----------------------|
G|--------------------------------|-----------------------------|
D|--------------------------------|-----------------------------|
A|--------------------------------|-----------------------------|
E|--------------------------------|-----------------------------|
Dm
E|------(13pb15)r13|10-----------------------------------|
B|-----------------|-------------------------------------|
G|12b13------------|---10p9------------------------------|
D|-----------------|--------10------------10h12p10-------|
A|-----------------|--------------8s10--------------8s10-|
E|-----------------|-----------13------13----------------|
Gm
E|-------------------------|---------------------------------12-13|
B|-------------------------|---------------------10-11s13-15------|
G|-------------------------|-------------9-10-12------------------|
D|-----------------------10|12--12----12--------------------------|
A|---------------8-10s12---|-------13-----------------------------|
E|13-10---8-9-10-----------|--------------------------------------|
Dm
E|15-12------------10------|--------------------|-----------------|
B|------13------------13b15|----13-10-----------|-----------------|
G|---------12s9-12---------|----------13-12-10-9|-----------------|
D|-------------------------|--------------------|12----------10-12|
A|-------------------------|--------------------|---10-11-12------|
E|-------------------------|--------------------|-----------------|
Gm
E|---------12-13-12h13p12----12---|(15pb17)r15-13-12-13---12h13p12|
B|------15----------------15----15|-------------------------------|
G|14b15---------------------------|-------------------------------|
D|--------------------------------|-------------------------------|
A|--------------------------------|-------------------------------|
E|--------------------------------|-------------------------------|
Dm A Dm
E|--------|-----|--------------------------------|
B|15------|-----|------13-10---------------------|
G|--------|-----|---10-------10------------------|
D|--------|-----|---------------12-------------10|
A|--------|-----|---------------------10h11h12---|
E|--------|-----|--------------------------------|

E|------------------------|--------------------------|
B|-------13-10------------|------13-10---------------|
G|----10-------10----12-10|---10-------10----------10|
D|12--------------12------|12-------------12---------|
A|------------------------|---------------------12---|
E|------------------------|--------------------------|
E|-----------------------------|-----|
B|-------13-10-----------------|-----|
G|----10-------10------------10|-----|
D|12--------------12-----------|12---|
A|-------------------10h11h12--|-----|
E|-----------------------------|-----|


Ваше мнение



Капча

Рекомендуем