Error Of My Ways
by Wishbone Ash
from the album Wishbone Ash
Transcribed by Robert Watson [email protected]
1st solo
Bm Em A
E|--------------|---------10-------|---------------------|
B|--------------|---10b12----10b12-|-10---8-10b12r10p8---|
G|-----------7-9|9-----------------|-------------------9-|
D|7s9----7h9----|------------------|---------------------|
A|--------------|------------------|---------------------|
E|--------------|------------------|---------------------|
C B Bm Em
E|-------------|-----------|----------12-15|
B|10---10-8p7--|-----------|----15b17------|
G|------------7|-------7-9-|9--------------|
D|-------------|9--7h9-----|---------------|
A|-------------|-----------|---------------|
E|-------------|-----------|---------------|
A C Bm
E|----------------------------|--------------|
B|15b17---15-12---------------|--------------|
G|--------------14b16r14p12---|14-14-12-11---|
D|--------------------------12|--------------|
A|----------------------------|--------------|
E|----------------------------|--------------|
Harmony guitar part

E|------------|-------------|--------------------|------------|
B|8-7---------|8-7---------7|8-7-------8-7-------|8-7---------|
G|-----9-7----|-----9-7-9---|-----9-7-------9-7--|-----9-7-9--|
D|---------9--|-------------|--------------------|------------|
A|------------|-------------|--------------------|------------|
E|------------|-------------|--------------------|------------|
| | | | |
E|7-----------|7------------|7---------7---------|7-----------|
B|--10-8-7----|--10-8-7-8--7|--10-8-7----10-8-7--|--10-8-7----|
G|---------9--|-------------|--------------------|---------9--|
D|------------|-------------|--------------------|------------|
A|------------|-------------|--------------------|------------|
E|------------|-------------|--------------------|------------|

E|------------|-------------|--------------------|----------------|
B|8-7---------|8-7---------7|8-7-------8-7-------|8-7-------------|
G|-----9-7----|-----9-7-9---|-----9-7-------9-7--|-----9-7-9-----6|
D|---------9--|-------------|--------------------|-------------9--|
A|------------|-------------|--------------------|----------------|
E|------------|-------------|--------------------|----------------|
| | | | |
E|7-----------|7------------|7---------7---------|7---------------|
B|--10-8-7----|--10-8-7-8--7|--10-8-7----10-8-7--|--10-8-7--------|
G|---------9--|-------------|--------------------|---------9-----9|
D|------------|-------------|--------------------|-------------9--|
A|------------|-------------|--------------------|----------------|
E|------------|-------------|--------------------|----------------|


E|------------|-------------|-----7-8--7h8p7---|-----|
B|------------|------------7|8-10------------10|8----|
G|7-6--------6|7-6-------9--|------------------|-----|
D|---------9--|-------------|------------------|-----|
A|------------|-------------|------------------|-----|
E|------------|-------------|------------------|-----|
| | | | |
E|------------|-------------|------------------|-----|
B|7-----------|8------------|8----7-10-8h10p8-7|-----|
G|--9--------9|--9---------9|--9---------------|9----|
D|---------9--|----------9--|------------------|--9-9|
A|------------|-------------|------------------|-----|
E|------------|-------------|------------------|-----|

2nd solo
Bm Em A
E|-------------|-----7--10b12-|10b12-10-7-10-7-----------|
B|-------------|--------------|----------------10b12-10-8|
G|---------7-9-|9-------------|--------------------------|
D|7s9--7h9-----|--------------|--------------------------|
A|-------------|--------------|--------------------------|
E|-------------|--------------|--------------------------|
C B Bm Em
E|---------------|--------------|------------12-15-|
B|10-10-10-8p7---|--------------|------15b17-------|
G|-------------7-|----------7-9-|9-----------------|
D|---------------|9--7h9--------|------------------|
A|---------------|--------------|------------------|
E|---------------|--------------|------------------|
A C Bm
E|----------------------------|--------------|
B|15b17---15-12---------------|--------------|
G|--------------14b16r14p12---|14-14-12-11---|
D|--------------------------12|--------------|
A|----------------------------|--------------|
E|----------------------------|--------------|

3rd Solo
Em D G D Em
E|----|-----------|--------|------0------------|-----------|
B|----|-----------|--------|----0---0-3b5r3-0--|-----------|
G|----|--(2b3)r2-0|2----0--|2b4---------------2|0----------|
D|---0|2----------|---2----|-------------------|--2-0------|
A|-2--|-----------|--------|-------------------|------2-0--|
E|----|-----------|--------|-------------------|----------3|
D G D Em
E|-----------|------------|------0-------0|---------0|
B|-----------|------------|----0---0-3b5--|3b5--3b5--|
G|-----------|------------|2b4------------|----------|
D|-----------|-------0h2-0|---------------|----------|
A|------0h2-0|0--0h2------|---------------|----------|
E|0-0h3------|------------|---------------|----------|
D G D
E|-------------|-------------------|--0---------3----|
B|3b5-3b5-3-0-0|-------------------|0---0-3h4h5---5-3|
G|-------------|2b3r2-0-2-2-----0h2|-----------------|
D|-------------|------------0h2----|-----------------|
A|-------------|-------------------|-----------------|
E|-------------|-------------------|-----------------|
stacato rhythem starts
Em D
E|------3-5-5b7|5b7-5b7-5b7-5b7-5-3-5-5b7|r5-3-5---3---3-5|
B|5-3h5--------|-------------------------|-------5---5----|
G|-------------|-------------------------|----------------|
D|-------------|-------------------------|----------------|
A|-------------|-------------------------|----------------|
E|-------------|-------------------------|----------------|
G D Em
E|5b7r5-3-----2-5|-----------12|--------------------------|
B|--------5-3----|5-5--15b17---|15b17----15b17-15-12-15-12|
G|---------------|-------------|--------------------------|
D|---------------|-------------|--------------------------|
A|---------------|-------------|--------------------------|
E|---------------|-------------|--------------------------|
D G D
E|-----------------------------|-----------------------------------|
B|-----------------------------|-----------------------------------|
G|12-------------------11-12-14|14b16r14-12-14---------------------|
D|---14-------12h14-14---------|---------------14-12h14------------|
A|------12h14------------------|------------------------14p12----12|
E|-----------------------------|------------------------------15---|
Em
E|--------------------------|---------------------------|
B|--------------------------|------------------------15-|
G|--------------------------|---------------12-14b16----|
D|------------------12-14-14|14p12----12h14-------------|
A|---------10-12s14---------|------14-------------------|
E|12-10h12------------------|---------------------------|
D G D
E|-----------------------|----------------------------|
B|-----------------------|----------------------------|
G|14b16-14-12-14----12-14|14b16r14-12-14--------------|
D|---------------14------|-----------------14-12-14-14|
A|-----------------------|----------------------------|
E|-----------------------|----------------------------|
Double time starts
Em
E|--------------|---------12-------------------|
B|--------------|------12----12-15b17-15-12----|
G|------14p12---|14b16-------------------------|
D|14-14-------14|------------------------------|
A|--------------|------------------------------|
E|--------------|------------------------------|
D G D

E|-----------------------------------|---------12---------------------|
B|-----------------------------------|------12------------------------|
G|14b16r14-12-14-------------12----12|14b16-------14-14b16-14-12-14---|
D|---------------14-14-12-14----14---|------------------------------14|
A|-----------------------------------|--------------------------------|
E|-----------------------------------|--------------------------------|
Em
E|--------------------------|------12-------12-15-12---|
B|--------------------------|15b17----15b17------------|
G|------------14b16r14-12---|--------------------------|
D|14-14-14-14-------------14|--------------------------|
A|--------------------------|--------------------------|
E|--------------------------|--------------------------|
D G D
E|---15b17-15b17-15b17-|15b17-15-12-------12-15p12------------|
B|---------------------|------------15b17----------15b17-15-12|
G|---------------------|--------------------------------------|
D|---------------------|--------------------------------------|
A|---------------------|--------------------------------------|
E|---------------------|--------------------------------------|
Em
E|---------------------------12-------|-----------------------------|
B|------------------------12----12-15b|17--15b17-15-12-15-14-12-----|
G|---------12----12-14b16-------------|-----------------------------|
D|14-12h14----14----------------------|-----------------------------|
A|------------------------------------|-----------------------------|
E|------------------------------------|-----------------------------|
D G D
E|------------------------15-14|12------------------------------------|
B|---12-14-15-15-15-12-14------|---15-14-12----12-12h14---------------|
G|14---------------------------|------------14----------14-12-14p12---|
D|-----------------------------|------------------------------------14|
A|-----------------------------|--------------------------------------|
E|-----------------------------|--------------------------------------|
Em
E|-------------------------|---------12-----------12----|
B|-------------------------|------12----12--15b17----15-|
G|-------12b14--14b16-14b16|14b16-----------------------|
D|-14-14-------------------|----------------------------|
A|-------------------------|----------------------------|
E|-------------------------|----------------------------|
D G D
E|12-15-12----12-15b17-(17)|15b17-15-14-12----12h15p12---|
B|---------15--------------|---------------15------------|
G|-------------------------|-----------------------------|
D|-------------------------|-----------------------------|
A|-------------------------|-----------------------------|
E|-------------------------|-----------------------------|
Em
E|12-12-12--19-15----17-15-|---------19-15----17-15------|
B|----------------17-------|17-17-17-------17-------17---|
G|-------------------------|-----------------------------|
D|-------------------------|-----------------------------|
A|-------------------------|-----------------------------|
E|-------------------------|-----------------------------|
D G D
E|---------------------------|------------12---------------------|
B|17-17-15-17-17--17-15-14-15|14s12-14-15----15-14-12----12------|
G|---------------------------|------------------------14----14-12|
D|---------------------------|-----------------------------------|
A|---------------------------|-----------------------------------|
E|---------------------------|-----------------------------------|
Em D G D Em
E|------------|-----------------|--------|-------------------|--|
B|------15b17-|15b17-15b17-15-12|--------|------15-----------|--|
G|---12-------|-----------------|14----12|14b16----(16)-14-12|11|
D|14----------|-----------------|---14---|-------------------|--|
A|------------|-----------------|--------|-------------------|--|
E|------------|-----------------|--------|-------------------|--|
4th solo
Bm Em A
E|------------|----------12-15|--------------------------|
B|------------|----15b17------|15b17-15-12---------------|
G|---------7-9|9--------------|------------14b16r14p12---|
D|7s9-7h9-----|---------------|------------------------14|
A|------------|---------------|--------------------------|
E|------------|---------------|--------------------------|
C B Bm Em
E|---------------|------------|----------12---|
B|---------------|------------|-------------12|
G|14-14-12-11----|--------7-9-|9---14b16------|
D|------------12-|9---7h9-----|---------------|
A|---------------|------------|---------------|
E|---------------|------------|---------------|
A C B
E|15b17-(17)-15b17-15-12|---------------------------|
B|----------------------|15b17-15-12----------------|
G|----------------------|------------14b16r14-12-11-|
D|----------------------|---------------------------|
A|----------------------|---------------------------|
E|----------------------|---------------------------|


Ваше мнение



Капча

Рекомендуем