Date: Thu, 03 Aug 1995 10:08:14 -0500 (CDT)
From: Jonathan Gilana
Subject: TAB: "Sorry Again" by Velocity Girl
"Sorry Again" by Velocity Girl
Transcribed by Jonathan Gilana
(special thanks to Stephanie Alarcon and Paul Williams)
August 3, 1995
INTRO:
Gtr 1:
e----------------------------------------------------------------------------|
B-12-12-12-12-12-12-12-13-12-10-12-15-15-15-15-15-15-15-13-13-13-15-13-13-13-|
G-0--0--0--0--0--0--0--0--0--0--0--0--0--0--0--0--0--0--0--0--0--0--0--0--0--|
D----------------------------------------------------------------------------|
A----------------------------------------------------------------------------|
E----------------------------------------------------------------------------|
Repeat ^ 3X
e----------------------------------------------------------------------------|
B-12-12-12-12-12-12-12-13-12-10-12-------------------------------------------|
G-0--0--0--0--0--0--0--0--0--0--0--------------------------------------------|
D----------------------------------------------------------------------------|
A----------------------------------------------------------------------------|
E----------------------------------------------------------------------------|
Gtr. 2:
e---------------------------------------------------------------------
B---------------------------------------------------------------------
G---------------------------------------------------------------------
D---------------------------------------------------------------------
A------10-----12-----9---10---9---5-----10-----0-----9---10---9---10--
E---------------------------------------------------------------------
RIFF 1: RIFF 2:
e-------------------------------- e----------------------------
B-------------------------------- B----------------------------
G------------------------9---7--- G----------------------------
D----7---9---7-9--7---9---------- D----7---9---10--9--7--------
A-------------------------------- A----------------------10----
E-------------------------------- E----------------------------
VERSE 1:
G(riff 1) C(riff 1)
It'll never happen again
G(riff 1)
Is a promise I just can't keep
C(riff 2)
When I'm all alone on the porch
G(riff 1)
I'd be drifting off to sleep
C(riff 1)
I changed too much this year
G(riff 1)
But I did it for you my dear
C(riff 2)
You let me stick around
I'll never let you down
CHORUS:
D C Em
Well I guess that I was wrong (Well I guess that I was wrong)
D C Em
I was mistaken all along (Whoo-hoo)
D C Em
And it's hard to admit it's the end (And no it's hard to admit it's the end)
D C
So I'll say I'm sorry again
Em
And again and again and again
VERSE 2:
G(riff 1) C(riff 1)
You wanted to change my mind
G(riff 1)
Are you falling a bit behind
C(riff 2)
It can never be the same
G(riff 1)
You refuse to take the blame
C(riff 1)
Well I guess it happened again
G(riff 1)
If you didn't already know
C(riff 2)
Sometimes it's hard to believe
We've sunk so low
*CHORUS
SOLO:
G
Riff 1 Riff 1 Riff 1 Riff 1
e----------------------------------------------
B----------------------------------------------
G----------------------------------------------
D---------5-------5-------4--5--4--5-----------
A----------------------------------------------
E-------------3------3-------------------------
G C
e----------------------------------------------------------
B----------------------------------------------------------
G----------------------------------------------------------
D----------------------------------------------------------
A---------------------------------------3/5---3---2---3----
E---3/5---3---7---3---0---3---3/5---3----------------------
G C
e----------------------------------------------------------
B----------------------------------------------------------
G----------------------------------------------------------
D----------------------------------------------------------
A-----------------------------3/5---3---2---3---0---2------
E---3/5---3---7---3---0---3--------------------------------
*CHORUS
last line is:
Em G
And again and again and again

[email protected]



Ваше мнение



Капча

Рекомендуем