Smells Like Teen Spirit(Tori Amos version)
From the 'Crucify' single
I find this sounds best when I pick with my fingers.
Intro(piano transcribed for guitar)-
E-------------------------6------------------------4-----|
B--------------------------------------------------------|
G------5-6------5-6---------------6-----3-5--------------|
D---3--------3--------3--------3------3--------3-------3-|
A--------------------------------------------------------|
E--------------------------------------------------------|
"Load up", etc...
E----3--------------------------------------------------|
B---------------6-------------4-------------------------|
G-3----------3-----------3------------------------------|
D---------3----------3-------------6--------------------|
A---------------------------------------------3---------|
E------------------------------------------------1------|

If I ever find myself with eons of spare time and a desire to torture
Myself, I'll attempt to tab out the rest. In the meantime, have fun
With what's here. Write me with any comments, questions, corrections or
Additions at the address below.
Transcribed by Bryson Meunier
Http://www.angelfire.com/free/bryson.html
Mailto:[email protected]


Ваше мнение



Капча

Рекомендуем