прислал таблатуру ZICFRID
Есть одно фишка - не могу подобрать маленький проигрышь !
Проигрышь и основной ход
3|---6---6----------------------|
4|---6---66-------9---9---9---9-|
5|---4xxx46-------9---9---9---9-| / 4раза
6|--------4xxxxxxx7xxx7xxx7xxx7-|/
Когда в кармане немного денег
3|---6---6----------------------|
4|---6---66-------9---9---9---9-|
5|---4xxx46-------9---9---9---9-| / 4раза
6|--------4xxxxxxx7xxx7xxx7xxx7-|/
Когда ты из простой рабочей семьи
3|---6---6----------------------|
4|---6---66-------9---9---9---9-|
5|---4xxx46-------9---9---9---9-| / 4раза
6|--------4xxxxxxx7xxx7xxx7xxx7-|/
Тебя все вокруг называют бездельник
3|---6---6----------------------|
4|---6---66-------9---9---9---9-|
5|---4xxx46-------9---9---9---9-| / 4раза
6|--------4xxxxxxx7xxx7xxx7xxx7-|/
Но деньги тебе и не так важны
Припев
3|---6666666666--------------------------|
4|---66666666666666666666999999999999999-|
5|---44444444446666666666999999999999999-| / 4раза
6--4444444444777777777777777-|/

Dont stop hooligans
Зашнуруй свои ботинки
Dont stop hooligans
Сжаты кулаки
Dont stop hooligans
В этом поединке
Dont stop hooligans
Лягут все враги
3|---6---6----------------------|
4|---6---66-------9---9---9---9-|
5|---4xxx46-------9---9---9---9-| / 4раза
6|--------4xxxxxxx7xxx7xxx7xxx7-|/
Ты смотриш romper stomper и hlopolgorag
3|---6---6----------------------|
4|---6---66-------9---9---9---9-|
5|---4xxx46-------9---9---9---9-| / 4раза
6|--------4xxxxxxx7xxx7xxx7xxx7-|/
И на футбольных матчах ты всегда
3|---6---6----------------------|
4|---6---66-------9---9---9---9-|
5|---4xxx46-------9---9---9---9-| / 4раза
6|--------4xxxxxxx7xxx7xxx7xxx7-|/
Ты бьешь татуировки и на концерты ходишь
3|---6---6----------------------|
4|---6---66-------9---9---9---9-|
5|---4xxx46-------9---9---9---9-| / 4раза
6|--------4xxxxxxx7xxx7xxx7xxx7-|/
И махч замутить это ерунда
Dont stop hooligans
Зашнуруй свои ботинки
Dont stop hooligans
Сжаты кулаки
Dont stop hooligans
В этом поединке
Dont stop hooligans
Лягут все враги
3|---6---6----------------------|
4|---6---66-------9---9---9---9-|
5|---4xxx46-------9---9---9---9-| / 4раза
6|--------4xxxxxxx7xxx7xxx7xxx7-|/
И в творчестве проклятом тебя все ненавидят
3|---6---6----------------------|
4|---6---66-------9---9---9---9-|
5|---4xxx46-------9---9---9---9-| / 4раза
6|--------4xxxxxxx7xxx7xxx7xxx7-|/
Кто придает РОССИЮ все против тебя
3|---6---6----------------------|
4|---6---66-------9---9---9---9-|
5|---4xxx46-------9---9---9---9-| / 4раза
6|--------4xxxxxxx7xxx7xxx7xxx7-|/
С одними кулаками ты против системы
3|---6---6----------------------|
4|---6---66-------9---9---9---9-|
5|---4xxx46-------9---9---9---9-| / 4раза
6|--------4xxxxxxx7xxx7xxx7xxx7-|/
Но ей не сломать ,не сломать тебя
Dont stop hooligans
Зашнуруй свои ботинки
Dont stop hooligans
Сжаты кулаки
Dont stop hooligans
В этом поединке
Dont stop hooligans
Лягут все враги
Dont stop hooligans
Зашнуруй свои ботинки
Dont stop hooligans
Сжаты кулаки
Dont stop hooligans
В этом поединке
Dont stop hooligans
Лягут все враги


Ваше мнение



Капча

Комментарии

Namer.
Почему все делают ошибку в одной из строк этого текста? там поется Ты смотриш romper stomper и clockwork orange

Рекомендуем