-------------------------------------------------------------------------------
Signals Over The Air - Thursday
-------------------------------------------------------------------------------
Tabbed by: D.James
Email: [email protected]
Tuning: droped D

intro:
guitar 1:
e|-------5--8-----------------------------5----------------------------------|
B|---5---x--10----10-8---------------5----x----------------------------------|
G|---5---x--9----------9-10-9-7-5----5----x---10-9-7-9-7-5-(5)---------------|
D|---7---5---------------------------7----5---10-----------------------------|
A|---------------------------------------------------------------------------|
D|---------------------------------------------------------------------------|
guitar 2:
e|---------------------------------------------------------------------------|
B|---0---0---------------------------0----5----------------------------------|
G|---5---0-------------5-------------5----x--------------5-------------------|
D|---7---5---7-5-7-5-7---7-5---------7----5----7-5-7-5-7---7-5---------------|
A|---0-----------------------------------------------------------------------|
D|---------------------------------------------------------------------------|
little thing that comes in at about 00:24 sec
e|---8--8--8--8--8--10-10-12-12-10-10-8--8--8--8--10-10-10-------------------|
B|---10-10-10-10-10-10-10-10-10-10-10-10-10-10-10-10-10-10-------------------|
G|---------------------------------------------------------------------------|
D|---------------------------------------------------------------------------|
A|---------------------------------------------------------------------------|
D|---------------------------------------------------------------------------|
little part that comes in at 00:36 sec
e|----8h5--------------------------------------------------------------------|
B|--------8h5----------------------------------------------------------------|
G|------------7h5---7h5------------------------------------------------------|
D|----------------7----------------------------------------------------------|
A|---------------------------------------------------------------------------|
D|---------------------------------------------------------------------------|
| / slide up
| slide down
| h hammer-on
| p pull-off
| ~ vibrato
| + harmonic
| x Mute note


Ваше мнение



Капча

Рекомендуем