Thursday
Asleep in the Chapel

tuning(low to high: dadgbe)

intro
gtr1
|-2-2--2-2--2-2--0-0-----
|-3-3--3-3--0-0--0-0-----
|-4-4--4-4--0-0--0-0-----
|------------------------
|------------------------
|------------------------

gtr2
|------------------------
|-0-0--0-0--0-0--0-0-----
|-4-4--0-0--4-4--0-0-----
|-4-4--4-4--5-5--5-5-----
|------------------------
|------------------------

gtr1
|-2-2--2-2--2-2--0-0-----
|-3-3--3-3--0-0--0-0-----
|-4-4--4-4--0-0--0-0-----
|------------------------
|------------------------
|------------------------

gtr2
|------------------------
|-0-0--0-0--0-0--0-0-----
|-4-4--0-0--4-4--0-0-----
|-4-4--4-4--5-5--5-5-----
|------------------------
|------------------------


Ваше мнение



Капча

Рекомендуем