I Hate Everything About You-Three Days Grace
Three Days Grace
Drop D:
D A D G B E
Intro:
e--------------------------------------------------
b--------------------------------------------------
g-------6~~~---------6~~~--------6~~~--------6~~~--
d----4--6~~~-------4-6~~~------4-6~~~------4-6~~~--
a----4-------------4-----------4-----------4-------
d-4-----------0-4---------0-4---------0-4----------
e--------------------------------------------------
b--------------------------------------------------
g------4-6~~~------4-6~~~------4-6~~~------4-6~~~--
d------4-6~~~------4-6~~~------4-6~~~------4-6~~~--
a---0-----------0-----------0-----------0----------
d-0-----------0-----------0-----------0------------
Verse 1:
Fig. 1
e--------------------------------------------------
b--------------------------------------------------
g--------6~~~--------6~~~--------6~~~--------6~~~--
d------4-6~~~------4-6~~~------4-6~~~------4-6~~~--
a------4-----------4-----------4-----------4-------
d-0-4---------0-4---------0-4---------0-4----------
e--------------------------------------------------
b--------------------------------------------------
g------4-6~~~------4-6~~~------4-6~~~------4-6~~~--
d------4-6~~~------4-6~~~------4-6~~~------4-6~~~--
a---0-----------0-----------0-----------0----------
d-0-----------0-----------0-----------0------------
F#5 D5
Every time we lie awake ... after every hit we take
F#5 D5
Every feeling that i get ... but i haven’t missed you yet
F#5 D5
Every roomate kept awake ... by every sigh and scream we make
F#5 D5
All the feelings that i get ... but i still don’t miss you yet
Pre Chorus: w/ tremolo set to 16th notes
e--------------------------------------------0-----
b--------------------------------------------3-----
g--------------------------------------------2-----
d-2--------------------0---------------------0-----
a-2--------------------0---------------------------
d-2--------------------0---------------------------
only when i stop to think about it
Chorus: x2
e--------------------------------------------------
b-7--7---------------101010101010------5-5-5-5-5-5-
g-6--6----------------9-9-9-9-9-9------4-4-4-4-4-4-
d-4--4------0--0------7-7-7-7-7-7----x-2-2-2-2-2-2-
a-4--4------0--0------7-7-7-7-7-7----x-2-2-2-2-2-2-
d-4--4------0--0------7-7-7-7-7-7----x-2-2-2-2-2-2-
e-------------------------------------------------------------
b-7-7-7-7-7-7----------------------5-5-5-5-5-5----------------
g-6-6-6-6-6-6----x-----------------4-4-4-4-4-4----------------
d-4-4-4-4-4-4----x-0-0-0-0-0-0-----2-2-2-2-2-2----x-7---------
a-4-4-4-4-4-4----x-0-0-0-0-0-0-----2-2-2-2-2-2----x-7---------
d-4-4-4-4-4-4----x-0-0-0-0-0-0-----2-2-2-2-2-2----x-7---6~~~--
F#5 D5 A5 E5
I Hate Everything About You
F#5 D5 E5 A5 G#~~
Why Do I love you
Fig. 1 w/ this fill
e-------------------------------------------------------0---------
b---------------------------------------------------3-----3---3---
g-------------------------------------------------6---6-----6-----
d-----------------------------------------------------------------
a-----------------------------------------------------------------
d-----------------------------------------------------------------
2nd Verse:
F#5 D5
Every time we lie awake ... after every hit we take
F#5 D5
Every feeling that i get ... but i haven’t missed you yet
fill over 2nd Verse: w/ echo,
e-----------------------------------------------------------------
b-15--14~~~~~~-----15-14-------------------------15-14------------
g------------------------11~~~~~-----------------------11~~~~~----
d-----------------------------------------------------------------
a-----------------------------------------------------------------
d-----------------------------------------------------------------
A...Wake We Take ... I Get ...
Pre Chorus:
Chorus:
Bridge:
D5 E5 F#5 E5
gtr. 1
e---------------------------------------------------------------------------------
b-------------------------------------------7-7-7--7--7--7--7--7------------------
g-7-7-7--7--7--7--7--7-9-9-9--9--9--9--9--9----------------------9-9-9--9-9-9-----
d---------------------------------------------------------------------------------
a---------------------------------------------------------------------------------
d---------------------------------------------------------------------------------
gtr. 2
e---------------------------------------------------------------------------------
b-9-9-9-10-10-10-12-12-9-9-9-10-10-10-12-12-9-9-9-10-10-10-12-12-9-9-9-10p9-------
g---------------------------------------------------------------------------9-----
d---------------------------------------------------------------------------------
a---------------------------------------------------------------------------------
d---------------------------------------------------------------------------------
D5 E5 F#5 E5
gtr. 1
e---------------------------------------------------------------------------------
b-------------------------------------------7-7-7--7--7--7--7--7------------------
g-7-7-7--7--7--7--7--7-9-9-9--9--9--9--9--9----------------------9-9-9--9-9-9-----
d-----------------------------------------------------------------------------11--
a---------------------------------------------------------------------------------
d---------------------------------------------------------------------------------
gtr. 2
e---------------------------------------------------------------------------------
b-9-9-9-10-10-10-12-12-9-9-9-10-10-10-12-12-9-9-9-10-10-10-12-12-9-9-9-10p9-------
g---------------------------------------------------------------------------9-----
d-----------------------------------------------------------------------------11--
a---------------------------------------------------------------------------------
d---------------------------------------------------------------------------------
gtr. 3
e---------------------------------------------------------------------------------
b---------------------------------------------------------------------------------
g-9~~~~~~~~~~~~~~~~--9~~~~~~~~~~~~~~~~~~~~~-9~~~~~~~~~~~~~~~~-9~~~~~~~~~~~~~~~----
d---------------------------------------------------------------------------------
a---------------------------------------------------------------------------------
d---------------------------------------------------------------------------------
e--------------------------------------------------
b--------------------------------------------------
g-------6~~~---------6~~~--------6~~~--------------
d----4--6~~~-------4-6~~~------4-6~~~------4-------
a----4-------------4-----------4-----------4-------
d-4-----------0-4---------0-4---------0-4----------
Outro Chorus
that’s all
*i used to jam with Gontier and Groundswell, so im real sure this is correct*
trevor jones
[email protected]


Ваше мнение



Капча

Рекомендуем