From: [email protected] (D. Aley)
Semi-charmed Life
by 3rd Eye Blind

Tabbed by Danny Aley

This is my first attempt at a real tab, sorry if it sucks.
Intro 2x (And then another 2x with the Doo-Doo-Doo part)
e---------------------------4-4-4-4--4-4-4-4----------
b-9-9-9-9-9----8-8-8-8h9----4-4-4-4--4-4-4-4----------
g-8-8-8-8-8----8-8-8-8------6-6-6-6--6-6-6-6--8-65---
d-6-6-6-6-6----8-8-8-8------6-6-6-6--6-6-6-6----------
a--------------6-6-6-6------4-4-4-4--4-4-4-4----------
E-----------------------------------------------------
Gah, this is a simpler song than I thought. Most of the rest is just
variations on the intro with the occasional
e-----4-----4-----6-----------
b---6-----4-----6-------------
g-6-----5-----3---------------
d-----------------------------
a-----------------------------
E-----------------------------
shoved in there. It ends with that second one, too.
I have the lyrics, also, but according to the a.g.t FAQ I just read,
it's illegal to post them. O.o;
Comments/suggestions/flames welcome, I'm at [email protected]


Ваше мнение



Капча

Рекомендуем