From:[email protected])
Subject: TAB: THERION "Dawn of perishness"
Tab by: Erick Marquez and Daniel Meza
Words and Music by Therion
If you have any comments, questions, want the baseline, or
whatever, leave us a message.
[email protected] or [email protected]
A) INTRO
repeat this part 2 times
e |----------------------------------------------------------------------|
B |----------------------------------------------------------------------|
G |----------------------------------------------------------------------|
D |-3/7----7—-----7/3----3------3/5----5------5/2----2-------------------|
A |-3/7----7—-----7/3----3—-----3/5----5------5/2----2-------------------|
E |-1/5----5------5/1----1------1/3----3------3/0----0-------------------|
repeat this part 2 times
e |----------------------------------------------------|-----------------|
B |----------------------------------------------------|-----------------|
G |----------------------------------------------------|-----------------|
D |-3/7—777777-7/3--333333-3/5--555555-5/2--222222-----|--2---(2)--------|
A |-3/7—777777-7/3--333333-3/5--555555-5/2--222222-----|--2---(2)--------|
E |-1/5—555555-5/1--111111-1/3--333333-3/0--000000-----|--0---(0)--------|
e |-----------------------------------------------------------------------|
B |-----------------------------------------------------------------------|
G |------11--------12---------13---------12--------11---------------------|
D |------11--------12---------13---------12--------11---------------------|
A |------9---------10---------11---------10--------9----------------------|
E |-0-0------0-0--------0-0--------0-0--------0-0-------------------------|
Pm... ... ... ... ...
e |-----------------------------------------------------------------------|
B |-----------------------------------------------------------------------|
G |------11--------12---------13---------12--------10---------------------|
D |------11--------12---------13---------12--------10---------------------|
A |------9---------10---------11---------10--------8----------------------|
E |-0-0------0-0--------0-0--------0-0--------0-0-------------------------|
Pm... ... ... ... ...
e |-----------------------------------------------------------------------|
B |-----------------------------------------------------------------------|
G |------10--------12---------13---------12--------10---------------------|
D |------10--------12---------13---------12--------10---------------------|
A |------8---------10---------11---------10--------8----------------------|
E |-0-0------0-0--------0-0--------0-0--------0-0-------------------------|
Pm ... ... ... ... ...
e |-----------------------------------------------------------------------|
B |-----------------------------------------------------------------------|
G |------10--------12---------13---------12--------10---------------------|
D |------10--------12---------13---------12--------10---------------------|
A |------8---------10---------11---------10--------8----------------------|
E |-0-0------0-0--------0-0--------0-0--------0-0-------------------------|
Pm ... ... ... ... ...
Repeat 4 times
e |---------------------------------------------------|
G |------6---------8----------9---------8---------6~--|
D |---------------------------------------------------|
A |---------------------------------------------------|
E |---------------------------------------------------|
verse 1
e |-----------------------------------------------------------------------|
B |-----------------------------------------------------------------------|
G |-----------------------------------------------------------------------|
D |-----------------------------------------------------------------------|
A |------9---------10---------11---------10--------9----------------------|
E |-0-0------0-0--------0-0--------0-0--------0-0-------------------------|
Pm... ... ... ... ...
e |-----------------------------------------------------------------------|
B |-----------------------------------------------------------------------|
G |-----------------------------------------------------------------------|
D |-----------------------------------------------------------------------|
A |------9---------10---------11---------10--------8----------------------|
E |-0-0------0-0--------0-0--------0-0--------0-0-------------------------|
Pm... ... ... ... ...
e |-----------------------------------------------------------------------|
B |-----------------------------------------------------------------------|
G |-----------------------------------------------------------------------|
D |-----------------------------------------------------------------------|
A |------8---------10---------11---------10--------8----------------------|
E |-0-0------0-0--------0-0--------0-0--------0-0-------------------------|
Pm ... ... ... ... ...
e |-----------------------------------------------------------------------|
B |-----------------------------------------------------------------------|
G |-----------------------------------------------------------------------|
D |-----------------------------------------------------------------------|
A |------8---------10---------11---------10--------8----------------------|
E |-0-0------0-0--------0-0--------0-0--------0-0-------------------------|
Pm ... ... ... ... ...
Chorus 4 times
e |-------------------------------------|
B |-------------------------------------|
G |-------5----------6-6-----3-3/5--5---|
D |-------5----------6-6-----3-3/5--5---|
A |-------3----------4-4-----1-1/3--3---|
E |-0-0--------0-0----------------------|
Pm ... ...
Verse 2
We are not sure about this part repeat 2 times
e |----------------------------------------------|
B |----------------------------------------------|
G |-3---------3--2--------3-4-3------3-----------|
D |-3---------3--2--------3-4-3------3-----------|
A |-1---------1--0--------1-2-1------1-----------|
E |------0-0--------0-0-----------0-----0--------|
Pm ... ... . .
e |---------------------------------------------|
B |---------------------------------------------|
G |-----------------------4-5-4------4----------|
D |-4---------4--2--------4-5-4------4----------|
A |-4---------4--2--------2-3-2------2----------|
E |-2---0-0---2--0--0-0----------0------0-------|
Pm ... ... . .
Chorus again
After Chorus Riff A 2 times
e |-----------------------------------------------------------|
B |-----------------------------------------------------------|
G |-5--5-555------------------5--5-555------------------------|
D |-5--5-555---6--6-66666-----5--5-555------------------------|
A |-3--3-333---6--6-66666-----3--3-333------0-1-2-3-2-1-0-2---|
E |------------4--4-44444-------------------------------------|
e |-----------------------------------------------------------------------|
B |-----------------------------------------------------------------------|
G |-----------------------------------------------------------------------|
D |-----------------------------------------------------------------------|
A |-33333333333333333333----------------------------33333333333333333333--|
E |-------------------------44444444444444444444--------------------------|
e |------------------| all this 2 times
B |------------------|
G |------------------|
D |------------------|
A |-0-1-2-3-2-1-0-2--|
E |------------------|
End of riff A
Bass solo ( this part can be found in the oficial therion web site)
Guitar with bass solo repeat this part in all solo
e |------------------------------------------------------------------------|
B |------------------------------------------------------------------------|
G |------------------------------------------------------------------------|
D |-9---(9)----9---(9)------12---(12)----12---(12)----7---(7)----7---(7)---|
A |-9---(9)----9---(9)------12---(12)----12---(12)----7---(7)----7---(7)---|
E |-7---(7)----7---(7)------10---(10)----10---(10)----5---(5)----5---(5)---|
After bass solo repeat riff A
After riff A goes the guitar solo and rhythim guitar but we couldn’t
Transcribed.
This part goes after guitar solo riff B
e |-------------------------------------|
B |-------------------------------------|
G |-------------------------------------|
D |-------------------------------------|
A |-99-12-9--99-12-9--44-7-4--44-7-4----|
E |-------------------------------------|
This part repeat 4 times, but at the second time the guitar II enter.

Guitar II
e |---------------------------------------------|
B |---------------------------------------------|
G |---------------------------------------------|
D |-11-11-14-11--11-11-14-11---66-9-6-66-9-6----|
A |---------------------------------------------|
E |---------------------------------------------|
End of riff B
riff C 2 times
e |------------------------------------------------|
B |------------------------------------------------|
G |------------------------------------------------|
D |-5--2---2--22--2--22-5--2---2-2-2-2-2-2-2-2-2---|
A |-5--2---2--22--2--22-5--2---2-2-2-2-2-2-2-2-2---|
E |-3--0---0--00--0--00-3--0—--0-0-0-0-0-0-0-0-0---|
Pm. . .. . .. . Pm . . . . . . . .
.
riff D 2 times
e |-------------------------------------------|
B |-------------------------------------------|
G |-3--2------------------3--2----------------|
D |-3--2--3---------------3--2--3------6------|
A |-1--0--3--333-3-3-33---1--0--3--333-6--2---|
E |-------1--111-1-1-11---------1--111-4--0---|
2 times
e |----------------------------------------|
B |----------------------------------------|
G |------7-777-8-5-77--------7-777-8-5-----|
D |-9-7--7-777-8-5-77--9-7---7-777-8-5-----|
A |-9-7--5-555-6-3-55--9-7---5-555-6-3-----|
E |-7-5----------------7-5-----------------|
End of riff D
After goes riff B, riff C and riff D
Repeat 6 times
e|------------------------------------|
B|------------------------------------|
G|------------------------------------|
D|-2-2-2-2-2-2-2-2-2-2-2-2-8/7-5/7----|
A|-2-2-2-2-2-2-2-2-2-2-2-2-8/7-5/7----|
E|-0-0-0-0-0-0-0-0-0-0-0-0—6/5-3/5----|
Pm . . . . . . . . . . .
4 times
e|---------------------------------------|
B|---------------------------------------|
G|---------------------------------------|
D|---------------------------full--------|
A|----------------------------6^----3-5--|
E|-000000000000000000000000--------------|
e|-----|
B|-----|
G|-----|
D|--2--|
A|--2--|
E|--0--|
Pm...
The tab has been transcribed for normal tunning e,B,G,D,A,E and created by Erick Marquez and Daniel Meza from Bogotб Colombia. Date: October 13th 2001. All rights reserved.


Ваше мнение



Капча

Рекомендуем