the rolling stones : time wates for no one (album:it's only rock'n roll)
intro:
e |----------5-----------------------|
B |-----------------------8----------|
G |--------5------------9------------|
D |------7------------9--------------|
A |----7------------7----------------|
E |----5------------7----------------| x4
e |-----5-7p5--------------7p5-------|------3p1-------------------------|
B |----6-----6-----------5----5------|---------1-------------1-1--------|
G |---7--------7--------5-------5----|----2------2-----------0-0--------|
D |--0-----------------7-------------|---3---------------2-2-----2------|
A |----------------------------------|--3----------------3-3-----3------|
E |----------------------------------|----------------------------------|
e |----------------------------------|----------------------------------|
B |--1--3-1-0------------------------|----------------------------------|
G |--2----------------0-0-0----------|--0----0-0--0-2----0--0--0--------|
D |--2----------------2-2-2----------|--2----2-2--2-0----0--0--0--------|
A |--0----------------2-2-2----------|--3--3-------------2--2--2--------|
E |----------------------------------|-------------------3--3--3--------|
e |--0---0---0---0-----0---0---0---0-|
B |--1---1---1---1-----0---0---0---0-|
G |--2---2---2---2-----0---0---0---0-|
D |--2---2---2---2-----2---2---2---2-|
A |--0---0---0---0-----2---2---2---2-|
E |--0---0---0---0-----0---0---0---0-|
yeah stars crossed in pleasure......
verse1
Am Em Am Em
yeah stars crossed in pleasure , the stream flows on by
Am Em Am Em
yes as we sated on leasure , we watch it fly
(chorous)
Dm Am F C
time waits for no one , and it wont wait for me
Am Em C G
time waits for no one , and it wont wait for me
verse2
Am Em Am Em
time can tear down a building , or destroy a woman's face
Am Em Am Em
hours are like diamonds , dont let them waste
(chorous)
Dm Am F C
time waits for no one , no favour has he
Am Em C G
time waits for no one , and it wont wait for me
verse3
Am Em Am Em
men,they build towers to their passing yes, to their fame everlasting
Am Em Am Em
here he comes chopping and reaping, hear him laugh at their cheating
(chorous)
Dm Am F C
time waits for no one , no favour has he
Am Em C G
time waits for no one , and it wont wait for me
verse4
Am Em Am Em
drink in your summer, gather your corn
Am Em Am Em
the dreams of the night time, will vanish by dawn
(chorous)
Dm Am F C
time waits for no one , no favour has he
Am Em C G
time waits for no one , and it wont wait for me
no no no,not for me...


Ваше мнение



Капча