Band: Ramones
Song: Hey Ho, Let's Go
Tabbed by: Daniel Luengas
E-Mail: [email protected]
I'm completely sure this is right, enjoy...........
Intro:
e|-----------------------------------------------------------------|
B|-----------------------------------------------------------------|
G|----------5-7-----------5-7-----------5-7---------5-5-5----------|
D|-5-5-5-5--5-7--5-5-5-5--5-7--5-5-5-5--5-7--5-5-5--5-5-5--5-5-5---|
A|-5-5-5-5--3-5--3-3-3-3--3-5--3-3-3-3--3-5--5-5-5--3-3-3--5-5-5---| x2
E|-3-3-3-3-------3-3-3-3-------3-3-3-3-------3-3-3---------3-3-3---|
Verse:
e|-----------------------------------------------------------------|
B|-----------------------------------------------------------------|
G|----------5-7-----------5-7-----------5-7---------5-5-5----------|
D|-5-5-5-5--5-7--5-5-5-5--5-7--5-5-5-5--5-7--5-5-5--5-5-5--5-5-5---|
A|-5-5-5-5--3-5--3-3-3-3--3-5--3-3-3-3--3-5--5-5-5--3-3-3--5-5-5---| x2
E|-3-3-3-3-------3-3-3-3-------3-3-3-3-------3-3-3---------3-3-3---|
Chorus:
e|------------------------------|
B|------------------------------|
G|----------------------5-4-----|
D|-5-5-5-5-5-5-4-4-4-4--5-4-----|
A|-5-5-5-5-5-5-4-4-4-4--3-2-----|
E|-3-3-3-3-3-3-2-2-2-2----------|
e|------------------------------|
B|------------------------------|
G|----------------------5-7-----|
D|-5-5-5-5-5-5-4-4-4-4--5-7-----|
A|-5-5-5-5-5-5-4-4-4-4--3-5-----|
E|-3-3-3-3-3-3-2-2-2-2----------|
Verse:
e|-----------------------------------------------------------------|
B|-----------------------------------------------------------------|
G|----------5-7-----------5-7-----------5-7---------5-5-5----------|
D|-5-5-5-5--5-7--5-5-5-5--5-7--5-5-5-5--5-7--5-5-5--5-5-5--5-5-5---|
A|-5-5-5-5--3-5--3-3-3-3--3-5--3-3-3-3--3-5--5-5-5--3-3-3--5-5-5---| x2
E|-3-3-3-3-------3-3-3-3-------3-3-3-3-------3-3-3---------3-3-3---|
Chorus:
e|------------------------------|
B|------------------------------|
G|----------------------5-4-----|
D|-5-5-5-5-5-5-4-4-4-4--5-4-----|
A|-5-5-5-5-5-5-4-4-4-4--3-2-----|
E|-3-3-3-3-3-3-2-2-2-2----------|
e|------------------------------|
B|------------------------------|
G|----------------------5-7-----|
D|-5-5-5-5-5-5-4-4-4-4--5-7-----|
A|-5-5-5-5-5-5-4-4-4-4--3-5-----|
E|-3-3-3-3-3-3-2-2-2-2----------|
Verse:
e|-----------------------------------------------------------------|
B|-----------------------------------------------------------------|
G|----------5-7-----------5-7-----------5-7---------5-5-5----------|
D|-5-5-5-5--5-7--5-5-5-5--5-7--5-5-5-5--5-7--5-5-5--5-5-5--5-5-5---|
A|-5-5-5-5--3-5--3-3-3-3--3-5--3-3-3-3--3-5--5-5-5--3-3-3--5-5-5---| x2
E|-3-3-3-3-------3-3-3-3-------3-3-3-3-------3-3-3---------3-3-3---|
Outro:
e|---------------------------|
B|---------------------------|
G|---------------------------|
D|-5-5-5-5-5-5-5-5-5-5-------|
A|-5-5-5-5-5-5-5-5-5-5-------| x2
E|-3-3-3-3-3-3-3-3-3-3-------|
ok, hope you like it, any comments e-mail me


Ваше мнение



Капча

Рекомендуем