Nothing Achieving:
------------------
Whenever there`s a dot under a note(.) you should
play it palm muted.Start a few compasses in silence
(voice) and then start singing.

My daddy`s boots don`t fit me...

E--------------------------------------------
B--------------------------------------------
G-------------------------------------------- x2
D------2-2-2-2---2-2-2-2---2-2-2--5-4--------
A------2-2-2-2---2-2-2-2---2-2-2--5-4--------
E------0-0-0-0---0-0-0-0---0-0-0--3-2--------
P.mute . . . . . . . . . . .
He says I make him sick, well...
E--------------------------------------------
B--------------------------------------------
G-------------------------------------------- x2
D------2-2-2-2---2-2-2-2---2-2-2--5-4--------
A------2-2-2-2---2-2-2-2---2-2-2--5-4--------
E------0-0-0-0---0-0-0-0---0-0-0--3-2--------
. . . . . . . . . . .
I say there`s nothing worth achieving...
E--------------------------------------------
B--------------------------------------------
G----------------------5--7------------------ x3
D----------------------5--7------------------
A----------------------3--5------------------
E------3-5-3-5-----0-------------------------
/SLIDE/
E--------------------------------------------
B--------------------------------------------
G--------------------------------------------
D------------------------------------0-2-----
A--------------------------------------------
E------3-5-3-5-0-0-4-0-0-3-0-0-2-0-0-----0---
. . . . . . . .

Then invent a solo(it`s too difficult to tab),
and that`s all, I think.


Ваше мнение



Капча

Рекомендуем