INTRO
E|---------3-2----|----------------|----------------| |-------------|
B|--1-0-----------|----------------|----------------| |-------------|
G|-2-----2--------|-----rest-------|----------------| |2---2-2---2--|
D|0---------------|----------------|3333333355555555| |2---2-2---2--|
A|----------------|----------------|3333333355555555| |0-x-0-0---0--|
E|----------------|----------------|1111111133333333| |--------3----|
|Section A ------| |Section B----|
VERSE 1
A D
What a waster, what a ***in waster
G
You pissed it all up the wall

Em A
Around the corner where they chased her
D
There's tears coming out from everywhere
G Em
The city's hard, the city's fair
A D
Get back inside, you've got nothing on now
G Em
You mind your bleedin own, you two-bob cunt
Section B
VERSE 2
Section A
When she wakes up in the morning,
G Em
She writes down all her dreams
Section A
Reads like the book of revelations,
G Em
Or the Beano or the unabridged ulysses
Section A
Oh i really wanna know
G Em
So tell me, where does all the money go, where does all the money go
A D G G ? F#5 ? F5 ? E5
Straight, straight up her nose
E|----------------|----------------|----------------|----------------|
B|----------------|----------------|----------------|----------------|
G|2---2-2-----2---|----------------|----------------|-------rest-----|
D|2---2-2-----2---|----------------|5---5-5-----5---|----------------|
A|0-x-0-0-----0---|----------------|5---5-5-----5---|----------------|
E|--------3-------|0---1---2---3---|3-x-3-3-0---3---|----------------|
|Section C ---------------------------------------------------------|
CHORUS 1
F G
And i never really liked it any way
F G
So much preferred it the other way, yeah
Section B
VERSE 3 [SAME AS VERSE 2]
What a divvy, what a ***ing div
Talking like a moron, walking like a spiv
I was laying in bed paying my rent
Knocking on the door for something that she left her brother
Meanwhile from under the covers she says
Save me from tomorrow luv, save me from tommorow
Oh no, Oh no not me
Section C
CHORUS 2 [SAME AS CHORUS 1]
And i never never liked it any way
So much preferred it the other way, yeah
Section B
Never really liked it any way
So much preferred it the other way yeah
Section B
INTERLUDE
E|--------3-2-----|2---2-------0---|
B|--1-0-----------|-3----3---0-----|
G|-2-----2--------|--4----4-0------| ~Repeat~
D|0---------------|----------------|
A|----------------|----------------|
E|----------------|--------0-------|
VERSE 4
Section A
What a waster, what a ***ing waster
G
You pissed it all up the wall
Em A
Round the corner where they chased her
D
There's tears coming out from everywhere
G Em
The city's hard the city's fair
Section A
Get back inside you've got nothing on now
G Em
You mind yer bleedin own you two-bob cunt
~Repeat~
OUTRO
A D G G
A D G G
A


Ваше мнение



Капча

Рекомендуем