The Libertines - Up the Bracket
Tabbed - Carl Barton

Standard Tuning

Intro:
F# F# F# F#
e|-------------------------|
B|-------------------------|
G|---3-3---3-3---3-3---3-3-|
D|---4-4---4-4---4-4---4-4-|
A|---4-4---4-4---4-4---4-4-|
E|---2-2---2-2---2-2---2-2-|

Verse:
A E A A
e|-------7777-----------||
B|-------9999-----------||
G|--6666-9999-6666-6666-|| x 2
D|--7777-9999-7777-7777-||
A|--7777-7777-7777-7777-||
E|--5555------5555-5555-||

(Palm Mute)
F# C# F# C# E
e|-------4444------4444-7777-|
B|-------6666------6666-9999-|
G|--3333-6666-3333-6666-9999-|
D|--4444-6666-4444-6666-9999-|
A|--4444-4444-4444-4444-7777-|
E|--2222------2222-----------|

Chorus:
F# E D C# C B C#
e|------------5555--44-33-22222-44--|
B|------------7777--66-55-44444-66--|
G|--3333-1111-7777--66-55-44444-66--|
D|--4444-2222-7777--66-55-44444-66--|
A|--4444-2222-5555--44-33-22222-44--|
E|--2222----------------------------|


Ваше мнение



Капча

Рекомендуем