----------------------------------------------------------------------------
7 Deadly Sins - The Libertines
----------------------------------------------------------------------------
Tabbed by: Tyron Clarke
Email: [email protected]
Tuning: Standard Tuning
Any comments or corrections feel free to email me
Intro:
e|-------13----12--11--10-------10---9-8--------------------
B|----10----10------------10--8----8------------------------
G|----------------------------------------------------------
D|----------------------------------------------------------
A|----------------------------------------------------------
E|----------------------------------------------------------
play the intro twice
Part 1:
e|-------8--------------------------------------------------
B|----10---10-8-------------6-------------------------------
G|---------------10-7--5h67---7-5----------5-7--7h107h10----
D|--------------------------------7-5-3h45------------------
A|----------------------------------------------------------
E|----------------------------------------------------------
Part 2:
e|-------8--------------------------------------------------
B|----10---10-8-------------6-------------------------------
G|---------------10-7--5h67---7-5-----------5-(9)-(10)------
D|--------------------------------7-5-3-5-7-----------------
A|----------------------------------------------------------
E|----------------------------------------------------------
Part 3:
e|---------------------9----------8-9-10--12-13--15-1715---
B|----10----------8-10---10-10-10---------------------------
G|-------10-10-10-------------------------------------------
D|----------------------------------------------------------
A|----------------------------------------------------------
E|----------------------------------------------------------
e|----13----------------------------------------------------
B|-------11---10h11p10-8h10p10------------------------------
G|-----------------------------10---9h10p9------------------
D|------------------------------------------12-10-----------
A|----------------------------------------------------------
E|----------------------------------------------------------
then play the intro

Although parts 4 and 5 are essentially the
same as parts 1 and 2, there are a couple
of little changes i have spotted within
the version i have
Part 4:
e|-------8--------------------------------------------------
B|----10---10-8-------------6-------------------------------
G|---------------10-7--5h67---7-5---------5--7h107h10-------
D|--------------------------------7-5-3-5-------------------
A|----------------------------------------------------------
E|----------------------------------------------------------
Part 5:
e|----8-----------------------------------------------------
B|--(10)-10-8------------6----------------------------------
G|------------10-7--5h67---7-5----------5-7~~(9)-(10)-------
D|-----------------------------7-5-3h45---------------------
A|----------------------------------------------------------
E|----------------------------------------------------------
play part 3 again after this
then play the intro 3 more times
and finally.....
The Finale:
e|-----9----10-----11-----12---13---------------------------
B|----9-9-10--10-11--11-12--12-13---------------------------
G|----------------------------------------------------------
D|----------------------------------------------------------
A|----------------------------------------------------------
E|----------------------------------------------------------

| / slide up
| slide down
| h hammer-on
| p pull-off
| ~ vibrato
| + harmonic
| x Mute note
============================================================================


Ваше мнение



Капча

Рекомендуем