"Don't Tell Yourself"
Chords by: Chris Bray ([email protected])
Intro:
G5 F5 D5 C5
e------15------15------15------15-|---------15-------------15------15-|-
B--12------12------13------13-----|--13/15------15--15/17------17-----|-
G---------------------------------|-----------------------------------|-
D---------------------------------|-----------------------------------|-
A---------------------------------|-----------------------------------|-
E---------------------------------|-----------------------------------|-
G5 F5 D5 C5
e------15------15------15------15-|---------15-------------15------15-|-
B--12------12------13------13-----|--13/15------15--15/17------17-----|-
G---------------------------------|-----------------------------------|-
D---------------------------------|-----------------------------------|-
A---------------------------------|-----------------------------------|-
E---------------------------------|-----------------------------------|-
G5 F5 D5 C5 G5 F5
Don't tell yourself it's okay. Don't tell yourself it's not true.
D5 C5 G5 F5 D5 C5 G5 F5 D5 C5
I don't want you to hurt me, but I want to hurt you.
A5 G5 E5 D5 A5 G5 E5 D5
Why would I wanna hurt you, when you make me cry so?
A5 G5 E5 D5 A5 G5 E5 D5 Bb
Why would I wanna do that? It makes you want to die so.
D5 Bb5 D5
Oh. Oh.
G5 F5 D5 C5 G5 F5
Don't tell yourself it's okay. Don't tell yourself it's so fine.
D5 C5 G5 F5 D5 C5 G5 F5 D5 C5
Why not what a fine day, I'm so glad that you're mine.
A5 G5 E5 D5 A5 G5 E5 D5
Why don't you try more? You're ringing in my ears.
A5 G5 E5 D5 A5 G5 E5 D5 Bb
I'm going to try more. Try to buy back my tears.
D5 Bb5 D5
Oh. Oh.
D5 F5 Bb5
Stop telling me, "It's okay."
D5 F5 Bb5
Stop telling me, "It's okay."
D5 F5 Bb5
Stop telling me, "It's okay."
D5 F5 Bb5
Stop telling me, "It's okay."
G5 F5 D5 C5
e------15--------------15------15-|---------15-------------15------15-----|-
B----------12------13------13-----|--13/15------15--15/17---------------0-|-
G---------------------------------|---------------------------------------|-
D---------------------------------|---------------------------------------|-
A---------------------------------|---------------------------------------|-
E---------------------------------|---------------------------------------|-
G5 F5 D5 C5
e-15---15------15------15------15-|---------15-------------15------15-|-
B----------12------13------13-----|--13/15------15--15/17------17-----|-
G---------------------------------|-----------------------------------|-
D---------------------------------|-----------------------------------|-
A---------------------------------|-----------------------------------|-
E---------------------------------|-----------------------------------|-
A5 G5 E5 D5
e------17------17------17------17-|---------17-------------17------17-|-
B--14------14------15------15-----|--15/17------17--17/19------19-----|-
G---------------------------------|-----------------------------------|-
D---------------------------------|-----------------------------------|-
A---------------------------------|-----------------------------------|-
E---------------------------------|-----------------------------------|-
A5 G5 E5 D5
e------17------17------17------17-|---------17-------------17------17-|-
B--14------14------15------15-----|--15/17------17--17/19------19-----|-
G---------------------------------|-----------------------------------|-
D---------------------------------|-----------------------------------|-
A---------------------------------|-----------------------------------|-
E---------------------------------|-----------------------------------|-
D5 Bb5 D5
Oh. Oh.
D5 F5 Bb5
Stop telling me, "It's okay."
D5 F5 Bb5
Stop telling me, "It's okay."
D5 F5 Bb5
Stop telling me, "It's okay."
D5 F5 Bb5
Stop telling me, "It's okay."
| Bb5 | G5 |


Ваше мнение



Капча

Рекомендуем