"A Circle of One"
Chords by: Chris Bray ([email protected])
Weird chords: C#: x43xxx D: x54xxx F#maj7: x9866x
F#: x9867x F#6: 2x434x
Intro: | C# | D | F#maj7 | F#maj7 |
| F# F#maj7 | F# F#maj7 | F# F#maj7 | F#maj7 |
| C# | D | F#maj7 | F#maj7 |
| F# F#maj7 | F# F#maj7 | F# F#maj7 | F#maj7 |
F# F#maj7 F# F#maj7 F# F#maj7
Came to the end,
F# D#m E B
Once again,
F#maj7 F# F#maj7 F# F#maj7 F# F#maj7
Start over now.
F# D#m E B
Just can't win.

F#6
e-|-----------------|------------------|-----------------|--------------
B-|-----------------|------------------|-----------------|--------------
G-|o---6-----6---6/-|-10\-----6-----6/-|-10\------6----6-|-3----3-------
D-|o---4--4------4/-|--8\--4--------4/-|--8\---4-------4-|-1----1-------
A-|-----------------|------------------|-----------------|--------------
E-|-----------------|------------------|-----------------|--------------
B
e-|------------------------|-------------------------|-
B-|------------------------|-------------------------|-
G-|--4----4----4--4--4--4--|-----------------------o-|-
D-|--4----4----4--4--4--4--|--2--2--2--2--2--2--2--o-|-
A-|--2----2----2--2--2--2--|--2--2--2--2--2--2--2----|-
E-|------------------------|--0--0--0--0--0--0--0----|-
G#m B F#6 E
Do it all again.
G#m B F#6 E
Go ahead, defy your better judgement.
G#m B F#6 E
Slide right to the bottom,
G#m B F#6 E
Climb back up again.
| G#m | B | F#6 | E | (x4)
F# F#maj7 F# F#maj7 F# F#maj7
Came to the end,
F# D#m E B
Once again,
F#maj7 F# F#maj7 F# F#maj7 F# F#maj7
Start over now.
F# D#m E B
Just can't win.
End on F#.


Ваше мнение



Капча

Рекомендуем