m: Andrew Rogers
Date: Wed, 27 May 1998 13:25:32 -0400
Subject: l/left_banke/ivy_ivy.crd
"Ivy, Ivy"
(Michael Brown - Tom Feher)
Intro:
nylon-string guitar (detuned whole-step):
[Note: this can be counted in 4/4 - it even works out to an integral
number of bars - but I found that bar lines were more of a hindrance
than a help in phrasing it properly.]
D ---0-----0-----0-----0-----0-----0-----0-----0-----0-----0-----0-
A -4-----4-----4-----4---7-----7-------4-----4-----4-----4---7-----
F -----6-----6-----6-------8-----8---6-----6-----6-----6-------8---
C -----------------------------------------------------------------
G -----------------------------------------------------------------
D -----------------------------------------------------------------
D -7-------------------0-----0-----0-----0---7-----7-----7-----7-----7-----
A ---7---9---7-4-----4---------7-----7-----4-----4-----4---7-----7-----7---
F -----8---8-----4-6-----6---------------------6-----6-------8-----8-----8-
C -------------------------7-----7-----7-----------------------------------
G -------------------------------------------------------------------------
D -------------------------------------------------------------------------
Dm
/ / / / / / / /
Verse 1:
(Dm)
You swear that it's always love
But it's not there or there's not enough
Bm D/A
Ivy, Ivy
Gmaj7 C/G
Ivy, when will you learn
Gmaj7 C/G
That love cannot exist on lies
Gmaj7 C/G
You only get what you earn
Gmaj7 A
It's right before your eyes
G [N.C.]
Oh, Ivy (Ivy)
[repeat intro]
Verse 2:
You can't make goodbye distrust
Your love lying under dust
You must see, Ivy
Ivy, how can you live
On hurting those that love you
And hiding what you've got to give
To fight something you must prove
Oh, Ivy (Ivy)
[repeat intro; fade]
-- another ace 60's tab from Andrew Rogers


Ваше мнение



Капча

Рекомендуем