Date: Thu, 14 Nov 1996 14:49:17 -0500
From: Andrew Rogers
Subject: ./k/knickerbockers/lies.crd
"Lies"
(Buddy Randell - Beau Charles)
Chorus 1a:
D5
v v v v v v v v v
-----|-----------------|-----------------|
-----|-----------------|-----------------|
-----|-2-2-2-5b7-------|-2-2-2-5b7-------|
-----|-0-0-0-----------|-0-0-0-----------|
-3-3-|-----------3-3-3-|-----------3-3-3-|
-----|-----------------|-----------------|
Lies Lies You're
v v v v v v v v
|-----------------|-----------------|
|-----------------|-----------------|
|-2-2-2-2-2-2-2-2-|-2-2-2-2-2-------|
|-0-0-0-0-0-0-0-0-|-0-0-0-0-0-------|
|-----------------|-----------3-3-3-|
|-----------------|-----------------|
tellin' me that you'll be true
D5
Lies, lies
A7
That's all I ever hear from you
Chorus 1b:
D5
Tears, tears
I shed a million tears for you
Tears, tears
A7
And now you're lovin' someone new
Post-chorus 1:
Bm E7
Someday I'm gonna be happy
Bm E7
But I don't know when just now
D G Em
Lies, lie-ies
Bm
A-breakin' my heart
Verse:
Bm E7
You think that you're such a smart girl
Bm E7
And I'll believe what you say
Bm E7
But who do you think you are, girl
Bm F# E F#
To lead me on this way hey
Chorus 2:
Lies [3: aaah], lies [3: yeah, baby]
I can't believe a word you say
Lies, lies
Are gonna make you sad someday
Post-chorus 2:
Some day you're gonna be lonely
But you won't find me around
Lies, lie-ies
A-breakin' my heart
Instrumental:
Left channel guitar:
D5
v v v v v v v v v
-------|-----------------|-----------------|
-------|-----------------|-----------------|
-------|-2-2-2-5b7-------|-2-2-2-5b7-------|
-------|-0-0-0-----------|-0-0-0-----------|
-3-3-3-|-----------3-3-3-|-----------3-3-3-|
-------|-----------------|-----------------|
v v v v v v v v
|-------------------------|-------------------------|
|-------------------------|-------------------------|
|-2-5b7r5--2--5-7b9r7--5--|5h7-5h7------------------|
|-------------------------|-------------------------|
|-------------------------|----------------3--3--3--|
|-------------------------|-------------------------|
[A/E]
v v v v v v v v
|-----------------|-----------------|
|-----------------|-----------------|
|-2-2-2-5b7-------|-2-2-2-5b7-------|
|-0-0-0-----------|-0-0-0-----------|
|-----------3-3-3-|-----------3-3---|
|-----------------|-----------------|
[Em7] [A/E Em7]
v v v v v v v v
|-------------------------|-------------------------|
|-------------------------|-------------------------|
|-------2b4---2--0--2p0---|---------2b4-2--2--0-----|
|----------------------2--|-------------------------|
|-------------------------|-------------------------|
|-------------------------|-------------------------|
Right channel guitar:
C D C D C
v v v v v v v v v
-------|-----------------|-----------------|
-------|-------5b7-------|-------5b7-------|
-------|-----------------|-----------------|
-2-2-2-|-4-4-4-----2-2-2-|-4-4-4-----2-2-2-|
-3-3-3-|-5-5-5-----3-3-3-|-5-5-5-----3-3-3-|
-------|-----------------|-----------------|
D5 C
v v v v v v v v
|-----------------|-----------------|
|-----------------|-----------------|
|-2-2-2-2-2-2-2-2-|-2-2-2-2-2-------|
|-0-0-0-0-0-0-0-0-|-0-0-0-0-0-4-4-4-|
|-----------------|-----------3-3-3-|
|-----------------|-----------------|
C D C D C A/E
v v v v v v v v v
-------|-----------------|-----------------|
-------|-------5b7-------|-------5b7-----2-|
-------|-----------------|---------------2-|
-2-2-2-|-4-4-4-----2-2-2-|-4-4-4-----2-2-2-|
-3-3-3-|-5-5-5-----3-3-3-|-5-5-5-----3-3---|
-------|-----------------|-----------------|
Em7 A/E Em7
v v v v v v v v
|-----------------|-----------------|
|-0-------------2-|-0---------------|
|-0-------------2-|-0---------------|
|-0-------------2-|-0---------------|
|-----------------|-----------------|
|-----------------|-----------------|
[repeat post-chorus 1]
[repeat verse]
[repeat chorus 2]
[repeat post-chorus 2]
Coda:
Bm
I said, baby, now (breakin' my heart)
Oh, yeah, you're still breakin' my heart (breakin' my heart)
[Fade...]
-- another ace 60's tab from Andrew Rogers



Ваше мнение



Капча

Рекомендуем