i cant go to sleep

intro
D7 G D7 G D7
---------------|
---------------|
---------------|
-------------5-|
-5-5-5-5-5h7---|
---------------|
verses
G
(1)every night i just can go to sleep
(2)every night i feel so lonely
C D7
every night i have to count sheep
longing for you one and only
G Em
every night i just can go to sleep(uh huh)
every night i just can go to sleep(uh huh)
A7 D7
without you without you(i just cant go to sleep)

chorus
3x
G Em
no no no no no no (yeah i just cant go to sleep)
A7 D7
without you without you
G
i just cant go sleep to sleep

bridge

F C F
-5-5- -3--- -5---|
-6--- -5-5- -6-6-|
-5--- -5--- -5---|
-3--- -5--- -3---|
----- -3--- -----|
----- ----- -----|
F C
everyday you look my way and i wont to hold you
F D7
but when that time comes your not around for me to love

outro
G Em
no no no no no no (yeah i just cant go to sleep)


Ваше мнение



Капча

Рекомендуем