Intro(After Synth)
e|------------------|
b|------------------|
g|------------------|(about 30 times)
D|99--99------------|
A|99--99------------|
E|77--77------------|
Verse
e|------------------|
b|------------------|
g|------------------|
D|9-9-999-----------|
A|9-9-999-----------|
E|7-7-777-----------|
Chorus (all on B string)
e|----------------------|
b|12-9-7-9-12-9-11-9-11-|
g|------8---------------|
D|----------------------|(prt1)
A|----------------------|
E|----------------------|
e|----------------------|
b|9-11-11-9-11-9-12-9-7-|
g|----------------------|
D|----------------------|(prt2)
A|----------------------|
E|----------------------|
e|----------------------|
b|11-9-7-9-12-9-11-9-11-|
g|----------------------|
D|----------------------|(prt3)
A|----------------------|
E|----------------------|
e|-----------------------|
b|9-11-9-11-9-11-7-9-7-9-|
g|-----------------------|
D|-----------------------|(Prt4)
A|-----------------------|
E|-----------------------|
e|---------------------|
b|7-9-12-10-9-12-10-9--|
g|---------------------|
D|---------------------|
A|---------------------|
E|---------------------|
Now repeat prt 1-3 and half of 4
end on 12 on the b string


Ваше мнение



Капча

Рекомендуем