I've studied this song for years and months, and I finay got it! its very hard to play on
a regular el-guitar so I prissiate to play it on my steel-guitar.... but this is the tab
for a regular guitar..... good luck..

if you want to argue aboot the text i have the official kelly family book.....so go to
hell!!

here it goes..
Artist: kelly family
song: fell in love with an alien.

Dropped D-tuning

ref.
-9-x--x---x------9----4--------------
-8-x--x---x------9----4--------------
-8-12-x---JA-JA--9--Whoooah!---------
-8-x--x---x------7----3--------------
-8-x--x---x------2----3--------------
-8-x--x---x------9----3--------------
I fell in love with an alien....nanana

not dropped D-tuning!.... you have to tune your guitar fast enough to play the verse...
you got aboot 3 seconds to toune it!! this is hard

verse.
---1---0--xH4----------------------------
---1---0--1P8----------------------------
---2---0--3H19---------------------------
---2---0--x------------------------------
---3---0--6------------------------------
---78--0--2------------------------------
repeat this 42 times and scream ass-fucking donkey
very loud!

this is everything.... don't forget to tune your guitar!

comments: [email protected]
remember: i have the book...so do not complain!!

by kajj-areh.


Ваше мнение



Капча

Рекомендуем