dn=dead notes
h = hammer
Intro
-------------------
-------------------
-------------------
-3--5--7-----------
-3--5--7-----------
-3--5--7-----------
dn dn dn

Transition
-------------------
-------------------
-------------------
--7--5--5--2-------
--7--5--5--2-------
--7--5--5--2-------
2nd Transition
-------------------
-------------------
-------------------
-------------------
---7h--------------
-------------------

Chorus
-------------------
-------------------
-------------------
--3--0--5--7----5--
--3--0--5--7----5--
--3--0--5--7----5--

Ending
-------------------
-------------------
-------------------
--7--3-------------
--7--3-------------
--7--3-------------


Ваше мнение



Капча

Рекомендуем