Tabbed by Brad Belisle (best tabber!)

intro
D C
e|-----------------------------------|
B|-----------------------------------|
G|-----------------------------------|
D|-3333555577777777-5555777733333333-|
A|-5555555555555555-3333333333333333-|
E|-----------------------------------|
Bb C
e|-----------------------------------|
B|-----------------------------------|
G|---3-3-3-3-3-3-33---5-5-5-5-5-5-55-|
D|-3333333333333333-5555555555555555-|
A|-1111111111111111-3333333333333333-|
E|-----------------------------------|

and the verses are
D C Bb C
e|--------------|
B|--------------|
G|-7--5--3--5-o-|repeat throughout all verse
D|-7--5--3--5-o-|
A|-5--3--1--3---|
E|--------------|

(1:24s understand; 1:18s split)
D C pause Bb
e|-------------|
B|-------------|
G|-7-5-------3-|
D|-7-5-pause-3-|
A|-5-3-------1-|
E|-------------|

(3:05s understand; 2:53s split)
F C Bb F C Bb Bb7
e|---------|--------------|
B|---------|--------------|
G|----5--3-|----5--3--2---|sometimes it does a variation
D|-3--5--3-|-3--5--3--3---|and does the Bb7 so listen for it...
A|-3--3--1-|-3--3--1--1---|
E|-1-------|-1------------|
and thats all for that song...


Ваше мнение



Капча

Рекомендуем