The Juliana Theory
Constellation
tabbed by: Brad Belisle
Intro:
C
Intro - 0:21
C F E F
[----------------------------------------------------------]
[----------------------------------------------------------]
[12-10-9--12-10-9--12-10-9--12-10-9--12-10-9--12-10-9------]
[-----------------------------------------------------10---]
[----------------------------------------------------------]
[----------------------------------------------------------]
C F E F

Verse riff. 0:34
[---0----0----0----0----0----0----0----0--]
[--1-1--1-1--1-1--1-1--1-1--1-1--1-1--1-1-]
[-----------------------------------------]
[-----------------------------------------]
[-3----3----------------------------------]
[-----------1----1----0----0----1----1----]
Chorus. 1:01
Guitar 1
[---------------------------------]
[---------------------------------]
[-5----7----5----12-10-9-12-10-9--]
[-5-8x-7-8x-5-8x------------------]
[-3----5----3---------------------]
[---------------------------------]
Guitar 2
[-----------------------]
[-----------------------]
[-5----10----9----10----]
[-5-8x----8x---8x----8x-]
[-3----8-----7----8-----]
[-----------------------]
End on A#
Verse 2- Same as verse one except at 1:42 this comes in on Guitar 2
[-----------------------------------------------------------------]
[-----------------------------------------------------------------]
[-----------------------------------------------------------------]
[-----------------------------------------------------------------]
[8-8-8-7-7-7-7-7-8-8-8-7-7-7-7-7-10-10-10-8-8-8-7-7---------------]
[--------------------------------------------------8-8-8-8-8-8-8-8]
[-----------------------------------------------------------------]
[-----------------------------------------------------------------]
[-----------------------------------------------------------------]
[---------------------------------------------------9-9-10-10-----]
[12-12-12-10-10-10-12-12-12-10-10-10-12-12-12-8-8-8---------------]
[-----------------------------------------------------------------]
Chorus same as 1st - 1:55
Bridge- 2:22
Guitar 1 -> A-F-C
Guitar 2
[---------------------------------]
[-10-6----------------------------]
[------5--(Listen for rhythm)-----]
[-7--3----------------------------]
[------3--------------------------]
[---------------------------------]
Guitar 2 lead fill
[--------------------------]
[--------------------------]
[-10-9-7/9-9-9-9--10-9--7--]
[--------------------------]
[-8--7-5/7-7-7-7--8--7--5--]
[--------------------------]
End on C - 3:05
Outro - 3:14
Guitar 2- repeat over and over
[---------------------------------]
[---------------------------------]
[-10-9-9-10-9-9-12-10-9-----------]
[-----------------------10-10-10--]
[---------------------------------]
[---------------------------------]
Then, Guitar 1 plays C-F-E-F while
Guitar 2 plays this
[--------------------------------------------------------------------------]
_-[------------------------------------------------------------------------]
[12-10-9--12-10-9--12-10-9--12-10-9--12-10-9--12-10-9--12-10-9-12/14-12----]
[--------------------------------------------------------------------------]
[--------------------------------------------------------------------------]
[--------------------------------------------------------------------------]
[---------------------------------------------------------]
[---------------------------------------------------------]
[12-10-9--12-10-9--12-10-9--12-10-9--12-10-9--12-10-9-----]
[-----------------------------------------------------10--]
[---------------------------------------------------------]
[---------------------------------------------------------]

And Then....
Guitar 1
[-----------------------------------------------------------------]
[-----------------------------------------------------------------]
[-----------------------------------------------------------------]
[-----------------------------------------------------------------]
[8-8-8-7-7-7-7-7-8-8-8-7-7-7-7-7-10-10-10-8-8-8-7-7---------------]
[--------------------------------------------------8-8-8-8-8-8-8-8]
Guitar 2
[--------------------------------------------------------------------]
[------------------------------------------------------12-12-13-10---]
[14-14-14-12-12-12-14-14-14-12-12-12-14-14-14-12-12-12---------------]
[------------------------------------------------------9--9--10-10---]
[12-12-12-10-10-10-12-12-12-10-10-10-12-12-12-10-10-10---------------]
[--------------------------------------------------------------------]
And Then....
Guitar 1- C-F-E-F and do a cool slide between the last F and the C
Guitar 2
[--------------------------]
[-13-12-13-12-13-15-17-15--]
[--------------------------] Tremolo picking
[-10-9--10-9--10-12-14-12--]
[--------------------------]
[--------------------------]


Ваше мнение



Капча

Рекомендуем