Artist: Jackson 5
Song:Push me away
Email : [email protected]

Bass fig1:
G-------------------------------------------------------------------------------------------------------------|
D------------------10------14--------10--12----10---7---5-----------5---7------------5----7-------------------|
A---3------------------------------------------------------------7---------------7-------------------7--------|
E-------------------------------------------------------------------------------------------------------------|

Bassfig 2:
---------------------------------------------------------------------------------------------------------------|
---------------------9--10-----10-/-9-----------------------------------10-------12-----10---------------------|
----3------------------------------------------------3--------------------------------------12-----------------|
---------------------------------------------------------------------------------------------------------------|
2nd time through play this
---------------------------------------------------------|
-------------10---/---12----------12----10--------------|
-----------------------------------------------12--------|
---------------------------------------------------------|
bass fig 3:play slow
-----------------------------------------------------------------------------------------------------------------------------|
-----------------------------------------------------------------------------------------------------------------------------|
---3---3---3---3---------2---2------------3-4-5---------7----5---3--------0-3 3--0-2---------0-2-3-------0-2-3---0-----------|
-----------------------------------------------------------------------------------------------------------------------------|
bass fig 4 little solo play slow
---------------------------------------------------------------------------|
--------------------------------------------------------------------------|
----3-------2------5------6----------------------65-0---------3-2-0------|
-------------------------------------------------------------------------|
end n solo
------------------------------------------------------------------|
------------------------------------------------------------------|
-----------3-----2-----------------2--3--------3---------5--------|
---------------------2-0---------------------3--------------------|

tabbed by: Ben Barnett

Tim n:
bassfig 1 3times
bassfig 2 4 times
play all the way through again then bass fig 2 add the little solo beneth it
3rd time through the song after bass fig 1 play the bass fig 4 little solo on the bottom
the page

Then:::::;;;;
bass fig 1 for the Big solo then the endn solo


Ваше мнение



Капча

Рекомендуем