Artist: Jackson 5
Song: All the things you are
Bass fig 1
G------------------------------------------------------------------------|
D------------------------------------------------------------------------|
A----------5-----7--------8------------------------7------5------4-------|
E---3--------------------------3-----------3-----------------------------|

-----------------------------------------------------------------|
-----------------------------------------------------------------|
--------7-----9-------10------------------------9------7------5--|
--5--------------------------5-------------5---------------------|

chorus:play faster
----------------------------------------------------------------------------------------------------------|
----------------------------------------------------------------------------------------------------------|
----------5-----7--------8------------------7------5------4-----------------------------------------------|
----3--------------------------3----3---------------------------------------------------------------------|

---------------------------------------------------------------|
---------------------------------------------------------------|
------------7-----9-------10------------------9------7------5--|
-----5--------------------------5---5--------------------------|
after chorus
------------------------------------------------------------------|
------------------------------------------------------------------|
----------5-----7--------8-8-8-------------------7------5------4--|
---3-3---------------------------------3-3-3----------------------|

tabbed by ben barnett


Ваше мнение



Капча

Рекомендуем