-------------------------------------------------------------------------------
The Hunger - The Distillers
-------------------------------------------------------------------------------
Tabbed by: Tiffany
Email: [email protected]
Tuning: Standard

INTRO/VERSE (acoustic)
e|-5--3--1--2----------------------------------------------------------------|
B|-5--5--1--4----------------------------------------------------------------|
G|-5--5--2--4----------------------------------------------------------------|
D|-7--5--3--4----------------------------------------------------------------|
A|-7--3--3--2----------------------------------------------------------------|
E|-5-----1-------------------------------------------------------------------|
CHORUS (with distortion)
e|-----------------------------|
B|-----------------------------|
G|-----------------------------|
D|-5--5--5--2-2--3--3--3-------| x4
A|-5--5--5--2-2--3--3--3-------|
E|-3--3--3--0-0--1--1--1-------|
LEAD GUITAR (over verse)
e|--------------------------------------------------|
B|--------------------------------------------------|
G|--------------------------------------------------|
D|--------------------------------------------------| x2
A|-8--10/11--10--8- 10--6- 64/8--87~-8/10--10-----|
E|--------------------------------------------------|
e|--------------------------------------------------|
B|--------------------------------------------------|
G|--------------------------------------------------|
D|--------------------------------------------------|
A|-8--10/11--10--8- 10--10/11--11/13--13b--13p1110-|
E|--------------------------------------------------|
e|--------------------------------------------------|
B|--------------------------------------------------|
G|--------------------------------------------------|
D|--------------------------------------------------|
A|-8--10/11--10--8- 10--6- 64/8--87~--------------|
E|--------------------------------------------------|
| b bend 1/2 step
| / slide up
| slide down
| h hammer-on
| p pull-off
| ~ vibrato
| + harmonic
| x Mute note
========================================================================


Ваше мнение



Капча

Рекомендуем