Title:(White man)In hammersmith Palias
Artist:The Clash
Time:9:15
Tabber:Viktor Hammar
Here it is
Intro/Chorus
E|--------------------------------------------------------------------------------
B|--------------------------------------------------------------------------------
G|---------------------9---9---9---9----------------------------------------------
D|----7---7---7---7----9---9---9---9-----5---5---5---5-----7---7---7---7----------
A|----7---7---7---7----7---7---7---7-----5---5---5---5-----7---7---7---7----------
E|----5---5---5---5----------------------3---3---3---3-----5---5---5---5----------
E|-----------------------------------
B|-----------------------------------
G|-----------------------------------
D|----5---5---5---5------7---7-------
A|----5---5---5---5------7---7-------
E|----3---3---3---3------5---5-------

Verse 2 times
E|---------------------------------|-----------------------------------
B|---------------------------------|-----------------------------------
G|------------9--9----6--6----7--7-|-----------9--9----11-11---7--7----
D|----7--7----9--9----6--6----7--7-|---7--7----9--9----11-11---7--7----
A|----7--7----7--7----4--4----5--5-|---7--7----7--7----9--9----5--5----
E|----5--5-------------------------|---5--5----------------------------
E|------------------------------
B|------------------------------
G|------------9--9--------------
D|----7--7----9--9----7---------
A|----7--7----7--7----7---------
E|----5--5------------5---------

Note that this is my first tab and remember to listen to the song.


Ваше мнение



Капча

Рекомендуем