Revolution Rock Bass Tablature
by the clash
Transcribed by: [email protected]
Brand new rock Chorus
G-----------------------------------------------------------------------
D------4--2--4-----4--2--4-----6--4--6-----6--4--6-----------------4----
A---2-----------2-----------4-----------4-----------------2--2--2-------
E-----------------------------------------------------------------------
Revolution...
G-----------------------------------------------------------------------
D------------2--4--4--4--2--4--4--4--0--2--2--2--0--2--2--2-------------
A---2--2--2--------------------------------------------------0--2--2----
E-----------------------------------------------------------------------

G-----------------------------------------------------------------------
D-----------------------------------------------------------------------
A---2-------------------------------------------------------------------
E-----------------------------------------------------------------------


Ваше мнение



Капча

Рекомендуем