Intro:

e-----------------|
b-----------------|
g-----------------|
d|--11---x-11---11-11-9-|-9---x-9---9-9-9-|
a|--11---x-11---11-11-9-|-7---x-7---7-7-9-|
e|--9----x-9----9--9--7-|-7---x-7---7-7-7-|

e-------------|
b-------------|
g------------.|
d|-7---x-7---7-7-9-|-6---x-6---6-6-9-.|
a|-7---x-7---7-7-9-|-6---x-6---6-6-9--|
e|-5---x-5---5-5-7-|-4---x-4---4-4-7--|


e-----------------|
b-----------------|
g-----------------|
d|--11---x-11---11-11-9-|-9---x-9---9-9-9-|
a|--11---x-11---11-11-9-|-7---x-7---7-7-9-|
e|--9----x-9----9--9--7-|-7---x-7---7-7-7-|

e-------------|
b-------------|
g------------.|
d|-7---x-7---7-7-9-|-6---------------.|
a|-7---x-7---7-7-9-|-6----------------|
e|-5---x-5---5-5-7-|-4----------------|


Verse:
e---------------------|
b---------------------|
g---------------------|
d|--11-11-11-11-11-11-11-11-|-9-9-9-9-9-9-9-9-|
a|--11-11-11-11-11-11-11-11-|-7-7-7-7-7-7-7-7-|
e|--9--9--9--9--9--9--9--9--|-7-7-7-7-7-7-7-7-|

e-----------|
b-----------|
g----------.|
d|-7-7-7-7-7-7-7-|-6-6-6-6-6-6-6-6-.|
a|-7-7-7-7-7-7-7-|-6-6-6-6-6-6-6-6--|
e|-5-5-5-5-5-5-5-|-4-4-4-4-4-4-4-4--|


Dear Chasey Lane
I wrote to explain
I`m your biggest fan
I just wanted to ask
Could i eat your ass
Write back as soon as you can

Chorus:

e---------------------|
b---------------------|
g---------------------|
d|--11-11-11-11-11-11-11-11-|-9-9-9-9-9-9-9-9-|
a|--11-11-11-11-11-11-11-11-|-7-7-7-7-7-7-7-7-|
e|--9--9--9--9--9--9--9--9--|-7-7-7-7-7-7-7-7-|

e-----------|
b-----------|
g----------.|
d|-7-7-7-7-7-7-7-|-6-6-6-6-6-6-6-6-.|
a|-7-7-7-7-7-7-7-|-6-6-6-6-6-6-6-6--|
e|-5-5-5-5-5-5-5-|-4-4-4-4-4-4-4-4--|


e---------------------|
b---------------------|
g---------------------|
d|--11-11-11-11-11-11-11-11-|-9---------------|
a|--11-11-11-11-11-11-11-11-|-7---------------|
e|--9--9--9--9--9--9--9--9--|-7---------------|

You had a lot of dick
(had a lot of dick)
I`ve had a lot of time
(had a lot of time)
You had a lot of dick, Chasey
but you ain`t got mine

Verse:

Dear Chasey Lane
I wrote to complain
You never wrote me back
How could i ever eat
your ass when you tread
your biggest fan like that

chorus: riff 3

Bridge
e----------------------------------|
b----------------------------------|
g----------------------------------|
d|--11---x-11---11-11-6-|-6--------------------------------|
a|--11---x-11---11-11-6-|-6--------------------------------|
e|--9----x-9----9--9--4-|-4--------------------------------|

Verse:

Dear Chasey Lane
I wrote to constrain
this letter is my last
as your biggest fan
I must demand
You let me eat your ass

Chorus:

Bridge:


Bridge2:
e--------------------------|----|
b--------------------------|----|
g--------------------------|----|
d|-9-9-9-9-9-9-9-9-|-9-9-9-9-9-9-9-9-|-11-11-11-11-11-11-11-11-|-11-|
a|-9-9-9-9-9-9-9-9-|-9-9-9-9-9-9-9-9-|-11-11-11-11-11-11-11-11-|-11-|
e|-7-7-7-7-7-7-7-7-|-7-7-7-7-7-7-7-7-|-9--9--9--9--9--9--9--9--|-9--|

Bridge2:

P.S., mom and dad this is Chasey
Chasey this is my mom and dad
Now show `em them tities


Bridge2:

Riff:

e-------------|
b-------------|
g-------------|
d|--2-2-2-2-2-2-2-2-|-2-2-2-2-2-2-2-2-|
a|--2-2-2-2-2-2-2-2-|-2-2-2-2-2-2-2-2-|
e|--0-0-0-0-0-0-0-0-|-0-0-0-0-0-0-0-0-|

e-------------|
b-------------|
g|-4-4-4-4-4-4-4-4-------.|
d|-4-4-4-4-4-4-4-4-|-4-4-4-4-4-4-4-4-.|
a|-2-2-2-2-2-2-2-2-|-4-4-4-4-4-4-4-4--|
e------|-2-2-2-2-2-2-2-2--|

Would you fuck me for blow

Intro:

Riff:
*-----------end-----------*


Ваше мнение



Капча