Standard Tuning

e----------x----------x----------x----------x------|--------------|
b----------x----------x----------x----------x------|--------------|
g----------x----------x----------x----------x------|-------6--2---|
d-2222----2x2222------x---------4x4444-----4x4444--|----4--6--2---|
a-2222----2x2222-----2x2222-----4x4444-----4x4444--|----4--4--0---|
E-0000----0x0000-----2x2222-----2x2222-----2x2222--|----2--0--0---|
(P.M.)
Bring back the memories
This ones giving up on you
Time is giving up on you
And there’s no more time... Forgive me one more time.

{Right here, count to eight for each chord.
1,2,3,4,5,6,7,8/1,2,3,4,5,6,7,8/
1,2,3,4,5,6,7,8/1,2,3,4,5,6,7,8/}

e--------------------------------------------------
b--------------------------------------------------
g--------------------------------------------------
d--22222222----------------44444444---77779742-----
a--22222222----22222222----22222222---55557542-----
E--00000000----22222222----22222222---55557520-----
(P.M.) (P.M.) (P.M.) (P.M.)
Cuz I... don’t... want... you...

e----------------------------------------|---0------|
b----------------------------------------|---0------|
g----------------------------------------|---0------|
d--22222222---------------44444444-------|---2------|
a--22222222----22222222---44444444-------|---2------|
E--00000000----22222222---22222222-------|---0------|
(P.M.) (P.M.)
Away... Just bury me I am away... {Be sure to strum all strings slowly)
Guitar 2
e------------|-------0-------|----------------|
b---5---1----|---0-----0---0-|---0-------0----|
g-----4---1--|-1---1-----1---|-1---1---1---1--|
d------------|---------------|-------2--------|
a------------|---------------|----------------|
E------------|---------------|----------------|

Back to Guitar 1.
e-----------------------------------------------|
b-----------------------------------------------|
g-----------------------------------------------|
d--22222222----------------44444444----44444444-|
a--22222222----22222222----44444444----44444444-|
E--00000000----22222222----22222222----22222222-|
(P.M.) (P.M.) (P.M.)
Whis-... pered... warning...

e------------------------------------------------------|
b------------------------------------------------------|
g------------------------------------------------------|
d----22222222---------------44444444----44444444-------|
a----22222222---22222222----44444444----44444444-------|
E----00000000---22222222----22222222----22222222-------|
(P.M.) (P.M.)
...Away... Just bury me, I am away...

e-------------------------------------------------------------------------|
b-------------------------------------------------------------------------|
g----0000000-----------0000000--------------------------------------------|
d----2222222-----------2222222---------------0000000----------------------|
a----2222222-----------2222222---------------2222222------------2222------|
E----0000000-----------0000000---------------2222222------------2222------|
Not a day has passed, that I'm regretting. The windows closed, and she’s
not letting me in

e---0---------0----------------|
b---0---------0----------------|
g---1---1-----1----------------|
d---2-----2---2----------------|
a---2---------2----------------|
E-0-0-0-----0-0----------------|
One place, one place slipped away and...
Missed call, missed calls, I can’t stay
Too late, she’s gone
I will miss her voice, her eyes and loves first kiss.
Guitar 2
e--------------------------------------- e----------------------|
b--------------------------------------- b---9---7-9------------|
g--------------------------------------- g-------------5---8-4--|
d-22222222-----------------44444444----- d----------------------|
a-22222222----22222222-----44444444----- a----------------------|
E-00000000----22222222-----22222222----- E----------------------|
I can’t remind you all the time
Bring it back, bring it back to where we were before.
I can’t remind you all the time. No no
Bring it back, bring it back.

End on
e-----------------------------------------------------------------------|-0-|
b-----------------------------------------------------------------------|-0-|
g---------------------------------------------1----------------2-1----1-|-0-|
d------2---2-1-2--------2----2-1-2--------2-----2---2------2-------4----|-2-|
a----2---2-------2----2----2-------2----2---0-----2------2---2----------|-2-|
E--0----------------0-----------------0----------------0----------------|-0-|

The day is gone, the sky is blue
I know you’re all alone, and the sky is blue.
Come back to me, the sky is blue. The sky is blue...


Ваше мнение



Капча

Рекомендуем