Band:Adicts
Song:Viva La Revolution
tabbed by [email protected]
Intro/Chorus
e-----------------------------------------------------------------------|
B-----------------------------------------------------------------------|
G--------------------------------11-11-11-11-11-11-11-11-11-11----------|
D--11-11-11-11-11-11-11-11-11-11-11-11-11-11-11-11-11-11-11-11--9-9-10--|
A--11-11-11-11-11-11-11-11-11-11--9--9--9--9--9--9--9--9--9--9--9-9-10--|
E--9--9--9--9--9--9--9--9--9--9---------------------------------7-7-8---|
Verse
PM-------------------------------------------------------------------|PM
e-----------------------------------------------------------------------|
B-----------------------------------------------------------------------|
G--------------------------------11-11-11-11-11-11-11-11-11-11----------|
D--11-11-11-11-11-11-11-11-11-11-11-11-11-11-11-11-11-11-11-11--9-9-10--|
A--11-11-11-11-11-11-11-11-11-11--9--9--9--9--9--9--9--9--9--9--9-9-10--|
E--9--9--9--9--9--9--9--9--9--9---------------------------------7-7-8---|
e----------------------------------------------------------------------|
B----------------------------------------------------------------------|
G--9-----9-----11----9----11-------------------------------------------|
D--9-----9-----11----9----11-------------------------------------------|
A--7-----7-----9-----7----9--------------------------------------------|
E----------------------------------------------------------------------|
If any corrections are needed contact me



Ваше мнение



Капча

Рекомендуем