t. See http://www.olga.net/faq/ for more information. #
Date: Sat, 29 Jan 2000 17:05:01 +0000
From: Richard
Subject: s/supernaturals/smile.crd
'Smile'(McColl) By The Supernaturals
From "It Doesn't Matter Anymore" album
Transcribed by Richard
There is basically just one progression throughout the song.
Guitar:
E:--2--2---2--2---3--3---0-------
b:--3--3---3--3---0--0---2--2----
g:--2--2---2--2---0--0---2--2----
d:--0--0---4--4---0--0---2--2----
a:---------4--4---2--2---0--0----
e:----------------3--3-----------
As far as I can work out, the Piano sequence is
D F#m G A D F#m G A
Every silver lining has a cloud...

FILL: POST-CHORUS:
E:------------- -x---------------
b:------------- play -x---------------
g:--0---------- main -x-----6-x-7-x-9-
d:----4-2-0---- riff -x-7-x-4-x-5-x-7-
a:----------0-- -x-5-x-----------
e:------------- -x---------------

That's it. If you need them, lyrics for the Second verse (as well as
more information about the band) can be found on the Original
Supernaturals Fan-page at:
http://www.geocities.com/SunsetStrip/Lounge/1955/


Ваше мнение



Капча

Рекомендуем