Song: LOVE AT FIRST SIGHT (bass tab)
Band: STYX
Tabbed by: FER MADRID
Time signature: 4/4
Note: I think Chuck Panozzo plays a 5 string bass on this track, but
i decided to tab this song for a 4 string bass.
INTRO
G|-----------------|----------------|----------------|----------------|
D|*-------R--------|-------E--------|-------S--------|-------T-------*|
A|*----------------|----------------|----------------|---------------*|
E|-----------------|----------------|----------------|----------------|
1 2 3 4 1 2 3 4 1 2 3 4 1 2 3 4
1st VERSE (play these notes lightly)
G|----------------|----------------|----------------|----------------|
D|*---------------|----------------|----------------|----------------|
A|*---------------|----------------|----------------|----------------|
E|-6-6-6-6-6-6-6-6|-6-6-6-6-6-6-6-6|-3-3-3-3-3-3-3-3|-3-3-3-3-3-3-3-3|
1 2 3 4 1 2 3 4 1 2 3 4 1 2 3 4
G|----------------|----------------|----------------|-----------------|
D|----------------|----------------|----------------|----------------*|
A|----------------|----------------|----------------|----------------*|
E|-4-4-4-4-4-4-4-4|-4-4-4-4-4-4-4-4|-5-5-5-5-5-5-5-5|-5-5-5-5-5-5-5-5-|
1 2 3 4 1 2 3 4 1 2 3 4 1 2 3 4

PRECHORUS
G|----------------|----------------|----------------|----------------|
D|----------------|----------------|----------------|----------------|
A|-6-6-6-6-6-6-6-6|-5-5-5-5-5-5-5-5|-3-3-3-3-3-3-3-3|----------------|
E|----------------|----------------|----------------|-3-3-3-3-1-1-1-1|
1 2 3 4 1 2 3 4 1 2 3 4 1 2 3 4
G|----------------|----------------|----------------|----------------|
D|----------------|----------------|----------------|----------------|
A|-6-6-6-6-6-6-6-6|-5-5-5-5-5-5-5-5|-3-3-3-3-5-5-5-5|-6-6-6-6-8-8-8-8|
E|----------------|----------------|----------------|----------------|
1 2 3 4 1 2 3 4 1 2 3 4 1 2 3 4
1st CHORUS
G|----------------|----------------|----------------|----------------|
D|----------------|----------------|----------------|----------------|
A|----------------|----------------|-5-5-5-5-5-5-5-5|-6-6-6-6-6-6-6-6|
E|-6-6-6-6-6-6-6-6|-3-3-3-3-3-3-3-3|----------------|----------------|
1 2 3 4 1 2 3 4 1 2 3 4 1 2 3 4
G|----------------|----------------|----------------|----------------|
D|----------------|----------------|----------------|----------------|
A|----------------|-6-6-6-6-6-6-6-6|----------------|----------------|
E|-6-6-6-6-6-6-6-6|----------------|-4-4-4-4-4-4-4-4|-4-4-4-4-4-4-4-4|
1 2 3 4 1 2 3 4 1 2 3 4 1 2 3 4
G|----------------|----------------|----------------|----------------|
D|----------------|----------------|----------------|----------------|
A|----------------|----------------|-5-5-5-5-5-5-5-5|-6-6-6-6-6-6-5-5|
E|-6-6-6-6-6-6-6-6|-3-3-3-3-3-3-3-3|----------------|----------------|
1 2 3 4 1 2 3 4 1 2 3 4 1 2 3 4
G|----------------|----------------|
D|----------------|----------------|
A|-3-3-3-3-3-3-3-3|----------------|
E|----------------|-1-1-1-1-1-1-1-1|
1 2 3 4 1 2 3 4
G|----------------|----------------|----------------|----------------|
D|----------------|----------------|----------------|----------------|
A|----------------|----------------|----------------|-6-6-6-6--------|
E|-6-6-6-6-6-6-6-6|-6-6-6-6-5-5-5-5|-3-3-3-3-3-3-3-3|---------4-4-4-4|
1 2 3 4 1 2 3 4 1 2 3 4 1 2 3 4
2nd VERSE
G|----------------|----------------|----------------|----------------|
D|*---------------|----------------|----------------|----------------|
A|*---------------|----------------|----------------|----------------|
E|-6-6-6-6-6-6-6-6|-6-6-6-6-6-6-6-6|-3-3-3-3-3-3-3-3|-3-3-3-3-3-3-3-3|
1 2 3 4 1 2 3 4 1 2 3 4 1 2 3 4
G|----------------|----------------|----------------|-----------------|
D|----------------|----------------|----------------|----------------*|
A|----------------|----------------|----------------|----------------*|
E|-4-4-4-4-4-4-4-4|-4-4-4-4-4-4-4-4|-5-5-5-5-5-5-5-5|-5-5-5-5-5-5-5-5-|
1 2 3 4 1 2 3 4 1 2 3 4 1 2 3 4
PRECHORUS
G|----------------|----------------|----------------|----------------|
D|----------------|----------------|----------------|----------------|
A|-6-6-6-6-6-6-6-6|-5-5-5-5-5-5-5-5|-3-3-3-3-3-3-3-3|----------------|
E|----------------|----------------|----------------|-3-3-3-3-1-1-1-1|
1 2 3 4 1 2 3 4 1 2 3 4 1 2 3 4
G|----------------|----------------|----------------|----------------|
D|----------------|----------------|----------------|----------------|
A|-6-6-6-6-6-6-6-6|-5-5-5-5-5-5-5-5|-3-3-3-3-5-5-5-5|-6-6-6-6-8-8-8-8|
E|----------------|----------------|----------------|----------------|
1 2 3 4 1 2 3 4 1 2 3 4 1 2 3 4
2nd CHORUS
G|----------------|----------------|----------------|----------------|
D|----------------|----------------|----------------|----------------|
A|----------------|----------------|-5-5-5-5-5-5-5-5|-6-6-6-6-6-6-6-6|
E|-6-6-6-6-6-6-6-6|-3-3-3-3-3-3-3-3|----------------|----------------|
1 2 3 4 1 2 3 4 1 2 3 4 1 2 3 4
G|----------------|----------------|----------------|----------------|
D|----------------|----------------|----------------|----------------|
A|----------------|-6-6-6-6-6-6-6-6|----------------|----------------|
E|-6-6-6-6-6-6-6-6|----------------|-4-4-4-4-4-4-4-4|-4-4-4-4-4-4-4-4|
1 2 3 4 1 2 3 4 1 2 3 4 1 2 3 4
G|----------------|----------------|----------------|----------------|
D|----------------|----------------|----------------|----------------|
A|----------------|----------------|-5-5-5-5-5-5-5-5|-6-6-6-6-6-6-5-5|
E|-6-6-6-6-6-6-6-6|-3-3-3-3-3-3-3-3|----------------|----------------|
1 2 3 4 1 2 3 4 1 2 3 4 1 2 3 4
G|----------------|----------------|----------------|----------------|
D|----------------|----------------|----------------|----------------|
A|-3-3-3-3-3-3-3-3|----------------|----------------|----------------|
E|----------------|-1-1-1-1-1-1-1-1|-6-6-6-6-6-6-6-6|-6-6-6-6-6---5--|
1 2 3 4 1 2 3 4 1 2 3 4 1 2 3 4
BRIDGE
G|----------------|----------------|----------------|----------------|
D|----------------|----------------|----------------|----------------|
A|----------------|----------------|-6-6-6-6-6-6-6-6|-5-5-5-5-5-5-5-5|
E|-3-3-3-3-3-3-3-3|-1-1-1-1-1-1-1-1|----------------|----------------|
1 2 3 4 1 2 3 4 1 2 3 4 1 2 3 4
G|----------------|----------------|----------------|----------------|
D|----------------|----------------|----------------|----------------|
A|-3-3-3-3-3-3-3-3|----------------|----------------|----------------|
E|----------------|-3-3-3-3-3-3-3-3|-5-5-5-5-5-5-5-5|-5-5-5-5-5-5-5-5|
1 2 3 4 1 2 3 4 1 2 3 4 1 2 3 4

PRECHORUS
G|----------------|----------------|----------------|----------------|
D|----------------|----------------|----------------|----------------|
A|-6-6-6-6-6-6-6-6|-5-5-5-5-5-5-5-5|-3-3-3-3-3-3-3-3|----------------|
E|----------------|----------------|----------------|-3-3-3-3-1-1-1-1|
1 2 3 4 1 2 3 4 1 2 3 4 1 2 3 4
G|----------------|----------------|----------------|----------------|
D|----------------|----------------|----------------|----------------|
A|-6-6-6-6-6-6-6-6|-5-5-5-5-5-5-5-5|-3-3-3-3-5-5-5-5|-6-6-6-6-8-8-8-8|
E|----------------|----------------|----------------|----------------|
1 2 3 4 1 2 3 4 1 2 3 4 1 2 3 4
3rd CHORUS
G|----------------|----------------|----------------|----------------|
D|----------------|----------------|----------------|----------------|
A|----------------|----------------|-5-5-5-5-5-5-5-5|-6-6-6-6-6-6-6-6|
E|-6-6-6-6-6-6-6-6|-3-3-3-3-3-3-3-3|----------------|----------------|
1 2 3 4 1 2 3 4 1 2 3 4 1 2 3 4
G|----------------|----------------|----------------|----------------|
D|----------------|----------------|----------------|----------------|
A|----------------|-6-6-6-6-6-6-6-6|----------------|----------------|
E|-6-6-6-6-6-6-6-6|----------------|-4-4-4-4-4-4-4-4|-4-4-4-4-4-4-4-4|
1 2 3 4 1 2 3 4 1 2 3 4 1 2 3 4
G|----------------|----------------|----------------|----------------|
D|----------------|----------------|----------------|----------------|
A|----------------|----------------|-5-5-5-5-5-5-5-5|-6-6-6-6-6-6-5-5|
E|-6-6-6-6-6-6-6-6|-3-3-3-3-3-3-3-3|----------------|----------------|
1 2 3 4 1 2 3 4 1 2 3 4 1 2 3 4
G|----------------|----------------|
D|----------------|----------------|
A|-3-3-3-3-3-3-3-3|----------------|
E|----------------|-1-1-1-1-1-1-1-1|
1 2 3 4 1 2 3 4
ENDING
G|----------------|----------------|----------------|-----------------|
D|*---------------|----------------|----------------|----------------*|
A|*---------------|----------------|----------------|-6-6-6-6--------*|
E|-6-6-6-6-6-6-6-6|-6-6-6-6-5-5-5-5|-3-3-3-3-3-3-3-3|---------4-4-4-4-|
1 2 3 4 1 2 3 4 1 2 3 4 1 2 3 4
(Repeat and fade)



Загрузка...

Ваше мнение



Капча

Рекомендуем