[1 guitar - bass]
1 -------------------------------------|
2 -------------------------------------|
3 -------------------------------------|
4 |------2--2------2--2------3--3------3--3--------|
5 |------2--2------2--2------3--3------3--3--------|
6 |------0--0------0--0------1--1------1--1--------|
[2 guitar - solo]
1 ---------------------------------------------------------------------------------|
2 ---------------------------------------------------------------------------------|
3 |-2--2-2-2--0/2--2-2-2--0/2/3---3-3-5-5-5--2--2-2-2--0/2--2-2-2--0/2-------------------------|
4 --------------------------------------------------------3--3--3/5/3---3-3-3-5-5--|
5 ---------------------------------------------------------------------------------|
6 ---------------------------------------------------------------------------------|
* * *
[1 guitar - bass]
1 ------------------------------------------|
2 ------------------------------------------|
3 ------------------------------------------|
4 |------7----7-7-----5----5-5-----3----3-3-------------|
5 |------7----7-7-----5----5-5-----3----3-3-------------|
6 |------5----5-5-----3----3-3-----1----1-1-------------|
[2 guitar - solo]
1 -----------------------------------------------------------|
2 ----------------3-3----------1-1----1/0--1/5---5-----------|
3 ---5-5-----------------------------------------------------|
4 |-------7--7----7-----5--5---5-----3--3---3----------------------------|
5 -----------------------------------------------------------|
6 -----------------------------------------------------------|
* * *
[1 guitar - bass]
1 ----------------------------------------------------------|
2 ----------------------------------------------------------|
3 ----------------------------------------------------------|
4 |-----2--2-----0-2/3---3---3--------2--2-----0-2/3---3----0-3---2-----|
5 |-----2--2-----0-2/3---3---3--------2--2-----0-2/3---3----0-3---2-----|
6 |-----0--0-----0-2/1---1---1--------0--0-----0-2/1---1----0-1---0-----|
* * *
[1 guitar - bass]
1 ---------------------------------------|
2 ---------------------------------------|
3 ---------------------------------------|
4 |-------12--12-----12--12-----9--9-----7--7--------|
5 |-------12--12-----12--12-----9--9-----7--7--------|
6 |-------10--10-----10--10-----7--7-----5--5--------|
[2 guitar - solo]
1 -----------------------------------------------|
2 -----------------------------------------------|
3 |------6-7-9-7-6-7-9----6-7-9-7-6-7-----6-6--------4-4-----|
4 -----------------------------------------------|
5 |----0-----------------------------9--9--9----7--7--7------|
6 -----------------------------------------------|
* * *
End:
[1 guitar - bass]
1 --------|
2 --------|
3 --------|
4 |-------12--->------|
5 |-------12--->------|
6 |-------10--->------|
[2 guitar - solo]
1 --------|
2 --------|
3 |-------0/9-->------|
4 --------|
5 --------|
6 --------|


Ваше мнение



Капча

Рекомендуем